Gametabs
Home
Tabs
Random

Letter

Average rating: 5.000

4 ratings

Composer:

Tabber:

Style:

Instrument:

Created: January 27, 2023 at 12:00 AM

            Title: Letter
SubTitle: Violet Evergarden
Artist: TRUE, Shota Horie
Tabber: Mitch Jackson
Tempo = 80
T/S = 4/4


  ♪♫•*¨*•.¸¸ CAPO 5 ¸¸.•*¨*•♫♪


Tuning = Drop 'D'
Left hand fingering is included in GP file as a guide

---------
LEGEND 
---------
h = Hammer-On
p = Pull-off
L = Hold Previous Note
^ = Upward Arpeggio
cres = Crescendo (Gradually Play Louder)
decres = Decrescendo (Gradually Play Quieter)
mp = mezzo-piano (Moderately Quiet)
mf = mezzo-forte (Moderately Loud)
f = forte (Loud or Strong)


  2/4                 
  mp               4/4                                                          ^                            ^    
     E  E  E  E       E  E  E  E  E  E  Q          E  E  E  E  E  E  E  E       E  E  E  E  Q     E  E       H           E  E  Q  
E |-----------3----|--2-----0--0----------------|----------------------------|--------------------2-------|--3-----------2-----2-------|
B |-----0--3-------|--------------3-----3-------|--0-----------------0--1----|--3--------------------3----|--0--------------3----------|
G |--0-------------|-----0-----------0----------|--2--0-----2--0--2----------|--0-----0--2--0-----2-------|--2-----------2-------------|
D |----------------|----------------------------|--------4-----------2-------|-----0----------------------|--0-------------------------|
A |----------------|--3-----------2-------------|-----2----------------------|----------------------------|----------------------------|
D |----------------|----------------------------|--1-----------2-------------|--3-------------------------|--0-------------------------|

     ^                                                                                                  ^
     H           E  E  E  E       E  E  E  E  Q     Q          E  E  E  E  E  E  E  E       E  E  E  E  Q     E  E
  |----------------------------|----------------------------|--3--------3--2-------------|--0-----------3-------------|
  |--0-----------------0-------|--3-----------3-----3-------|--------------------3--3----|--------------3-----3--1----|
  |--0-----------0--2-----5----|-----------2----------------|----------------------------|-----------0----------------|
  |--0-------------------------|-----0--4-------------------|--------0-------------------|--------0-------------------|
  |----------------------------|----------------------------|-----2-----------0--2-------|--3--3----------------------|
  |--5-------------------------|--4-------------------------|--2-----------0-------------|----------------------------|

                                                                                                         cres
     E  E  E  E  E  E  E  E       E  E  E  E  E  E  E  E       E  E  E  E  Q     Q          E  E  E  S S E  E  E  E
  |----------------------------|----------------------------|--------------0-------------|-----------------------------|
  |--3--------0----------------|--0--------1--------0-------|--------0-----0-------------|--0--------1p0---------------|
  |--------0-----0-----0--2----|--------0-----2-------------|--0-----------------0-------|--------0------2-------------|
  |-----0--------------2-------|-----2--------------4--1----|-----------0----------------|-----0-----------------------|
  |--2--------------2----------|--4--------------2----------|-----2--------4-------------|------------------------0----|
  |--------------2--------1----|--------------1-------------|--2-----0-------------------|--0------------0--2--4-------|  
  
  mf ^                        
     E  E  E  E  E  E  E  E       E  E  E  E  E  E  E  E       E  E  E  E  E  E  E  E       E  E  E  E  E  E  E  S S
  |----------------------------|----------------------------|--3--------3--2-------------|--0-----------0--------------|
  |--0--------0--------0-------|--3-----------3-----3-------|-----------0-----------3----|--0--------0--0--------3p1---|
  |--0-----0-----0--2-----5----|-----------2-----2----------|-----------0-----------2----|--------2--------0--2--------|
  |-----0----------------------|-----0--4--------------4----|--------2-----------0--4----|-----2-----------------------|
  |----------------------------|----------------------------|-----2-----------0----------|--4-----------3--------------|
  |--5-------------------------|--4-------------------------|--2-----------0-------------|-----------------------------|

                                              decres        mp                              cres
     E  E  E  E  E  E  E  E       E  E  E  E  E  E  E  E       E  E  E  E  E  E  E  E       E  E  E  E  E  E  E  E
  |----------------------------|----------------------------|----------------------------|--------------3--5--7--5----|
  |--3--------0----------------|--0--------1----------------|--------------0-------------|-----------3----------------|
  |--------0-----0--------0----|--------2-----2--------0----|--0-----0--2-----2-----0----|-----0----------------------|
  |-----0----------------------|-----2--------------0-------|-----0--------------0-------|--3-----3-----------0-------|
  |--2--------------0--2-------|--0--------------0----------|----------------------------|----------------------------|
  |--------------2-------------|--------------0-------------|--5-------------------------|--5-----------5-------------|

  f                                                       
     E  E  E  E  E  E  E  E       E  E  E  E  E  E  E  E       E  E  E  S S E  E  E  S S      E  E  E  E  E  E  E  E
  |--3--3--------0-----0--2----|--------------3--5--7--5----|--3--3-----0------------0-----|--------------3--5--7--5----|
  |-----------1-----1----------|--3--------3----------------|-----------1h3------------3---|-----------3--------3-------|
  |--------0-------------------|--------0-------------------|--------0---------------2-----|--------0-------------------|
  |-----2----------------------|-----0----------------------|-----2---------------0--------|-----0--------3-------------|
  |--3-------------------------|--2-------------------------|--0---------------0-----------|----------------------------|
  |----------------------------|----------------------------|---------------0--------------|--5-------------------------|

                                                                           decres        2/4
     E  E  E  E  E  E  E  E       E  E  E  E  E  E  E  E       E  E  E  E  E  E  E  E       E  E  E  E
  |--3--3-----------5--7--5----|--3--3-----5--3-------------|----------------------------|----------------|
  |-----------3--8-----0-------|-----------0-----------3----|--3--1--0-----0-------------|----------------|
  |--------0--------0----------|--------0-----------0-------|-----0-----0-----------0----|--------2--0----|
  |-----2----------------------|-----0-----------3----------|--------2-----------2-------|-----2----------|
  |--3-----------6-------------|--2-----------1-------------|--0--------3-----3----------|--3-------------|
  |----------------------------|----------------------------|--------------0-------------|----------------|

  mf 4/4                                                                         
     E  E  E  S S E  E  E  S S      E  E  E  E  H                E  E  E  S S E  E  E  E       E  E  E  E  H
  |------------------------------|----------------------------|-----------------------------|----------------------------|
  |------------------------------|--0-------------------------|---------------------3-------|----------------------------|
  |--0-----0----0-2-----0--0h2---|-----2--0--2----------------|--0-----0----0-2-----0-------|--2--0--2-------------------|
  |-----0-----4------0-----------|-----0--------0-------------|-----0-----4------0-----0----|--4--------2--4-------------|
  |------------------------------|--2-----------2-------------|-----------------------------|--0-------------------------|
  |--5------------5--------------|----------------------------|--5------------5-------------|--0-------------------------|

  mp                          
     E  E  Q     E  E  E  E       E  E  Q     Q     Q          E  E  E  E  E  E  E  E       Q     E  E  Q     E  E 
  |----------------------------|----------------------------|--3--------3--2-------------|--0-----------3-------------|
  |--0-----------------0-------|--3-----------------3-------|--------------------3--3----|--1--------1--------3--1----|
  |--------0-----0--2-----5----|--------------4-------------|----------------------------|--------0-------------------|
  |-----0----------------------|-----0--4-------------------|--------0-----------0-------|--------------2-------------|
  |----------------------------|--2-------------------------|-----2-----------2----------|--3-------------------------|
  |--5-------------------------|----------------------------|--2-----------0-------------|----------------------------|

                                                                                                          cres
     Q     E  E  E  E  E  S S      E  E  E  E  Q     Q          Q     Q     E  E  E  E       E  E  E  S S E  E  E  E
  |-----------------------------|----------------------------|--------------0-------------|-----------------------------|
  |--3--------0-----------------|--0--------1--------0-------|--------0-----0-------------|--0--------1p0---------------|
  |--0-----------0--------0h2---|--------0-----2-------------|--0-----------------0-------|--------0------2-------------|
  |--------4--------------------|-----2--------1-------------|--------0--------2-----2----|-----0-----------------------|
  |--2--------------0--2--------|--4-------------------------|--2-----------4-------------|------------------------0----|
  |--------------2--------------|--------------1-------------|--2-----0-------------------|--0------------0--2--4-------|
                                                         
  mf ^
     E  E  E  E  E  E  E  E       E  E  E  E  E  E  E  E       E  E  E  E  E  E  E  E       E  E  E  E  E  E  E  S S 
  |----------------------------|----------------------------|--3--------3--2-------------|--0-----------0--------------|
  |--0--------0--------0-------|--3-----------3-----3-------|-----------0-----------3----|--0--------0--0--------3p1---|
  |--0-----0-----0--2-----5----|-----------2-----2----------|-----------0-----------2----|--------2--------0--2--------|
  |-----0----------------------|-----0--4--------------0----|--------2-----------0--4----|-----2-----------------------|
  |----------------------------|--------------------0-------|-----2-----------0----------|--4-----------3--------------|
  |--5-------------------------|--4-------------------------|--2-----------0-------------|-----------------------------|

                                                                                            cres
     E  E  E  E  E  E  E  E       E  E  E  E  E  E  E  E       E  E  E  E  E  E  E  E       E  E  E  E  E  E  E  E
  |----------------------------|----------------------------|----------------------------|--------------3--5--7--5----|
  |--3--------0----------------|--0--------1----------------|--------------0-------------|-----------3----------------|
  |--------0-----0--------0----|--------2-----2--------0----|--0-----0--2-----2-----0----|-----0----------------------|
  |-----0--------------0-------|-----2--------------0-------|-----0--------------0-------|--3-----3-----------0-------|
  |--2--------------0--2-------|--0--------------2----------|----------------------------|----------------------------|
  |--------------2-------------|--------------0-------------|--5-------------------------|--5-----------5-------------|

  f                                                        
     E  E  E  E  E  E  E  E       E  E  E  E  E  E  E  E       E  E  E  S S E  E  E  S S      E  E  E  E  E  E  E  E
  |--3--3--------0--3--0--2----|--------------3--5--7--5----|--3--3-----0------------0-----|--------------3--5--7--5----|
  |-----------1----------------|--3--------3----------------|-----------1h3------------3---|-----------3--------3-------|
  |--------0--------0----------|--------0-----0-------------|--------0---------------2-----|--------0-------------------|
  |-----2----------------------|-----0----------------------|-----2---------------0--------|-----0--------3-------------|
  |--3-------------------------|--2-------------------------|--0---------------0-----------|----------------------------|
  |----------------------------|----------------------------|---------------0--------------|--5-------------------------|

                                                                                         2/4 decres
     E  E  E  E  E  E  E  E       E  E  E  E  E  E  E  E       E  E  E  E  E  E  E  E       E  E  E  E
  |--3--3-----------5--7--5----|--3--3-----5--3-------------|----------------------------|----------------|
  |-----------3--8-----0-------|-----------0-----------3----|--3--1--0--------0----------|----------------|
  |--------0--------0----------|--------0-----------0-------|-----0-----0--2--------0----|--------2--0----|
  |-----2----------------------|-----0-----------3----------|--------2-----------2-------|-----2----------|
  |--3-----------6-------------|--2-----------1-------------|--0--------3-----3----------|--3-------------|
  |----------------------------|----------------------------|--------------0-------------|----------------|

  mf 4/4                                                                         
     E  E  E  E  E  E  E  E       E  E  E  E  E  E  E  E       E  E  E  E  E  E  E  E       E  E  E  E  E  E  E  E      
  |----------------------------|-----------------------0----|----------------------------|----------------------------|
  |--0-------------------------|--3-----1-------------------|--3-----0-------------------|--1-----0-------------------|
  |--------0-----2--------0----|--------0-----0-------------|--------0-----2--------0----|--2-----------0-----2-------|
  |-----0-----0--------0-------|-----2-----2--------2-------|-----0-----0--------0-------|--------0-----------0-------|
  |----------------------------|--3--------------3----------|----------------------------|-----0-----0-----0-----0----|
  |--5--------------5----------|----------------------------|--5--------------5----------|--0-----------0-------------|

     ^                                                     
     E  E  E  E  E  E  E  E       E  E  E  E  E  E  E  E       E  E  E  E  E  E  E  E       E  E  E  E  E  E  E 
  |-----------------------3----|--5-----2--------------0----|--3-----2-----0--------2----|-----------------2--5-------|
  |--0--------0--3-------------|--------------3-------------|--0-----------1-------------|--3-----------3-------------|
  |--0-----0-----2-----0-------|--------0-----------0-------|-----------0--------2-------|--2--------2----------------|
  |-----0-----------0----------|-----2-----2-----2----------|--------2--------2----------|--------0-------------------|
  |----------------------------|--3-------------------------|-----2--------0-------------|-----0----------------------|
  |--5-------------------------|----------------------------|--2-------------------------|--0-------------------------|

                                                          
     Q.       E  E  E  E  E       E  E  Q     Q     Q          Q     E  E  E  E  E  E       E  E  E  S S Q     E  E
  |--L-----------3--5--7--5----|--3--3----------------------|--------------3--5--7--5----|--3--3-----0------------0----|
  |--L--------3----------------|--3-----3-----3-----3-------|--3-----3--3----------------|--1-----1----3---------------|
  |--L-------------------------|--0-----0-----0-----0-------|--0-----0-------------------|--0-----0------2-----2-------|
  |--L-------------------------|----------------------------|----------------------------|---------------0-------------|
  |--L-------------------------|--3-------------------------|--2-------------------------|--0--------------------------|
  |--L-------------------------|----------------------------|----------------------------|-----------------------------|

                 cres          f            
     Q     E  E  E  E  E  E       E  E  E  E  E  E  E  E       E  E  E  E  E  E  E  E       E  E  E  E  E  E  E  E
  |--------------3--5--7--5----|--3--3-----------5--7--5----|--3--3-----5--3-------------|----------------------------|
  |--3--------3--------3-------|-----------3--8-----0-------|-----------0-----------3----|--3--1--0-----0-------------|
  |--0-----0-------------------|--------0--------0----------|--------0-----------0-------|-----0-----0-----------0----|
  |--------------3-------------|-----2----------------------|-----0-----------3----------|--------2-----------2-------|
  |----------------------------|--3-----------6-------------|--2-----------1-------------|--0--------3-----0----------|
  |----------------------------|----------------------------|----------------------------|--------------0-------------|

  2/4 decres       mf 4/4                                                       ^
     E  E  E  E       E  E  E  E  E  E  E  E       E  E  E  E  E  E  E  E       W
  |----------------|--2--------0----------------|-----------3--3-----2-------|--3-------------------------||
  |----------------|--------------3--------3----|--3--1--0-----1-------------|--3-------------------------||
  |--------2--0----|--0-----0-----------0-------|--------0-----0--------0----|--0-------------------------||
  |-----2----------|-----2-----------0----------|-----2--------2-----0-------|--0-------------------------||
  |--0-------------|--3-----------2-------------|--0--------------0----------|----------------------------||
  |----------------|----------------------------|--------------0-------------|--5-------------------------||

                                                            
Note Durations:
---------------
W = Whole Note / Semibreve - 4 Beats
H = Half Note / Minim - 2 Beats
Q.= Dotted Quarter Note - 1 & 1/2 Beats (Crotchet + Quaver)
Q = Quarter Note / Crotchet - 1 Beat
E = Eighth Note / Quaver - 1/2 Beat
S = Sixteenth Note / Semiquaver - 1/4 Beat


        
Comments

@quinndangle2 (February 04, 2023 at 11:12 AM)

a ripping play as always!