Gametabs
Home
Tabs
Random

Vicissitudes of Fortune

Average rating: 5.000

1 ratings

Composer:

Tabber:

Style:

Instrument:

Created: October 12, 2011 at 12:00 AM

            vandal hearts- vicissitudes of fortune(Ash and Eleni)

e-----------------19------------------------
B-21--19--21--22------22--21------21--------
G-----------------------------18------------
D-------------------------------------------
A-------------------------------------------
E-------------------------------------------

e-----------------19--21--------------------
B-21--19--21--22----------21------21--------
G-----------------------------18------------
D-------------------------------------------
A-------------------------------------------
E-------------------------------------------

e----------------------------------------------------------
B-19--17--19--21--19--17--16------17--16-------------------
G-----------------------------16----------18--16--18-18----
D----------------------------------------------------------
A----------------------------------------------------------
E----------------------------------------------------------

e-----------------19------------------------
B-21--19--21--22------22--21------21--------
G-----------------------------18------------
D-------------------------------------------
A-------------------------------------------
E-------------------------------------------

e-----------------19--21--------------------
B-21--19--21--22----------21----21----------
G-------------------------------------------
D-------------------------------------------
A-------------------------------------------
E-------------------------------------------

e-------------------------------------------
B-19--17--19--21--19--17--16----------------
G-----------------------------16--18--------
D-------------------------------------------
A-------------------------------------------
E-------------------------------------------

e----------------------------------------------------------
B-----17--16-----------------------17--19--16--------------
G-16----------18--16--18-----16----------------16--18------
D----------------------------------------------------------
A----------------------------------------------------------
E----------------------------------------------------------



        
Comments

@iamHoustonian (October 13, 2011 at 12:02 AM)

the bold notes that you changed are the notes i play, but i had a mess up when trying to tab it. was working on it too late i suppose haha. again sorry for the misunderstanding, i thought someone was trying to steal my little baby tab.


@iamHoustonian (October 13, 2011 at 12:07 AM)

my original notes are correct. try playing it again

e-----------------20------------------------
B-21--19--21--22------22--21------21--------
G-----------------------------18------------
D-------------------------------------------
A-------------------------------------------
E-------------------------------------------

e-----------------20--22--------------------
B-21--19--21--22----------21------21--------
G-----------------------------18------------
D-------------------------------------------
A-------------------------------------------
E-------------------------------------------

@hslesperance (October 13, 2011 at 12:15 AM)

Sorry, when a mod uploads a tab it automatically puts their name in the tabber field. I forgot to change it to your name. It's fixed now.


@hslesperance (October 13, 2011 at 12:19 AM)

I double checked and have to disagree with the notes you put. Are you sure your high e string is in tune? Open E should sound the same as B5


@iamHoustonian (October 13, 2011 at 12:19 AM)

it's no big deal. thanks though. i think we should get another opinion on the changes u made hehe =^.^=


@iamHoustonian (October 13, 2011 at 12:27 AM)

i have an epiphone les paul that is cracked right at the head of the neck. it is highly likely that mine sounds better in those frets for that reason. thanks for being extremely cool with newbius maximus(me) hehe


@BacardiBreezer (October 13, 2011 at 2:21 AM)

Don't question hsl. He knows his shit.


@iamHoustonian (October 17, 2011 at 10:20 PM)

i submitted this yesterday