Gametabs
Home
Tabs
Random

KR-Action2v2

Average rating: 5.000

1 ratings

Composer:

Tabber:

Style:

Instrument:

Created: October 01, 2007 at 12:00 AM

            KR-Action2v2
Unreal Tournament 2004
Unknown Composer

7/28/07

Drop D Tuning
Heavy Distortion

Starting at about 20 seconds
e---------------------------------
B---------------------------------
G---------------------------------
D------------------------------8--
A--7p6-6---7p6-6---7p6-6---7p6----
D---------------------------------

e-----------------------------------------------
B-----------------------------------------------
G--------------------------------------------3--
D--2p1-1-1---2p1-1-1---2p1-1-1---2p1-1-1---1-3--
A--2p1-1-1---2p1-1-1---2p1-1-1---2p1-1-1---1-1--
D--2p1-1-1---2p1-1-1---2p1-1-1---2p1-1-1---1---- x4

e----------------------------------------------------
B----------------------------------------------------
G------------------------3---------------------------
D--2p1--1--1--1--1--1--1-3--2p1--1--1--1--1--1--2p1--
A--2p1--1--1--1--1--1--1-1--2p1--1--1--1--1--1--2p1--
D--2p1--1--1--1--1--1--1----2p1--1--1--1--1--1--2p1--

Small break then into

e----------------------------------------------------
B----------------------------------------------------
G------------------------3---------------------------
D--2p1--1--1--1--1--1--1-3--2p1--1--1--1--1--1--2p1--
A--2p1--1--1--1--1--1--1-1--2p1--1--1--1--1--1--2p1--
D--2p1--1--1--1--1--1--1----2p1--1--1--1--1--1--2p1-- x2

Then the palm muted part

e-----
B-----
G-----
D--1--
A--1--
D--1-- It's just this power chord repeated x amount of times
       and then caps off with this power chord every 3 times

e-----
B-----
G--3--
D--3--
A--1--
D-----

Another break

e---------------------------
B---------------------------
G------------------------6--
D--1----2--1---2--1---2--6--
A--1----2--1---2--1---2--4--
D--1----2--1---2--1---2----- x2

e-------------------------------------------------------
B-------------------------------------------------------
G-------------------------------------------------------
D--2--1-1-1--1-2--1-1-1--1-2--1-1-1--1-2---11-11-11-11--
A--2--1-1-1--1-2--1-1-1--1-2--1-1-1--1-2---11-11-11-11--
D--2--1-1-1--1-2--1-1-1--1-2--1-1-1--1-2---11-11-11-11-- x2

e--------------------
B--------------------
G--------------------
D--7-7-7-7-6--6-6-6--
A--7-7-7-7-6--6-6-6--
D--7-7-7-7-6--6-6-6-- strong palm mute

e----------------------------------------------------------
B----------------------------------------------------------
G----------------------------------------------------------
D--2--1-1-1-1-1-2--1-1-1-1-1-2--1-1-1-1-1-2---11-11-11-11--
A--2--1-1-1-1-1-2--1-1-1-1-1-2--1-1-1-1-1-2---11-11-11-11--
D--2--1-1-1-1-1-2--1-1-1-1-1-2--1-1-1-1-1-2---11-11-11-11--

e-----------------------
B-----------------------
G-----------------------
D--1--1--1-1-1-1-1-1-1--
A--1--1--1-1-1-1-1-1-1--
D--1--1--1-1-1-1-1-1-1--

e-------------------------------------------------------
B-------------------------------------------------------
G-------------------------------------------------------
D--2--1-1-1--1-2--1-1-1--1-2--1-1-1--1-2---11-11-11-11--
A--2--1-1-1--1-2--1-1-1--1-2--1-1-1--1-2---11-11-11-11--
D--2--1-1-1--1-2--1-1-1--1-2--1-1-1--1-2---11-11-11-11--

Repeat this last riff a few more times with some slight
timing modifications

e-----------------------
B-----------------------
G-----------------------
D--1--1--1-1-1-1-1-1-1--
A--1--1--1-1-1-1-1-1-1--
D--1--1--1-1-1-1-1-1-1--

e----------------------------
B----------------------------
G----------------------------
D--1----2--1---2--1---2--11--
A--1----2--1---2--1---2--11--
D--1----2--1---2--1---2--11--

The last riff has some palm muted
repetition parts but I'm tired as hell
and too lazy to put them in, so you can
figure them out :)

        
Comments

No comments yet