Gametabs
Home
Tabs
Random

Undertale Beta (Intro)

Average rating: 5.000

1 ratings

Composer:

Tabber:

Style:

Instrument:

Created: October 08, 2016 at 12:00 AM

            UNDERTALE (jingle)
Unused Beta Theme                           
Composed By Toby Fox
Arranged By John Lee

     E  E  E  E  Q    E  E     Q    E  E  Q    Q       E  E  E  E  Q    E  E     Q    E  E  Q    Q     
E||--------------6----------|--6----------6----8----|--------------6----------|--6----------6----5----|
B||-----------6--6-------6--|--6-------6--6---------|-----------6--6-------6--|--6-------6--6---------|
G||--8-----8-----8----8-----|--8----8-----8---------|--8-----8-----8----8-----|--8----8-----8---------|
D||-----8--------8----------|--8----------8---------|-----8--------8----------|--8----------8---------|
A||-------------------------|-----------------------|-------------------------|-----------------------|
E||-------------------------|-----------------------|-------------------------|-----------------------|


  E  E  E  E  Q    E  E     Q    E  E  Q    Q       E  E  E  E  Q    E  E     Q    E  E  Q    Q       
--------------8----------|--8----------8---------|--------------6----------|------------------------||
-----------5--5-------5--|--5-------5--5----5----|--------------3----------|--3----------3----5-----||
--7-----7-----7----7-----|--7----7-----7---------|--3-----3--5--3----3--5--|--3----3--5--3---------*||
-----7--------7----------|--7----------7---------|-----3--------3----------|--3----------3---------*||
-------------------------|-----------------------|-------------------------|------------------------||
-------------------------|-----------------------|-------------------------|------------------------||


-------||
-------||
-------||
-------||
-------||
-------||




Duration Legend
---------------
W - whole
H - half
Q - quarter
E - 8th
S - 16th
. - note dotted


Tablature Legend
----------------
L - tied note
x - dead note
g - grace note
(n) - ghost note
> - accentuded note
NH - natural harmonic
AH - artificial harmonic
        
Comments

No comments yet