Gametabs
Home
Tabs
Random

Spear of Justice

Average rating: 4.000

1 ratings

Composer:

Tabber:

Style:

Instrument:

Created: November 21, 2015 at 12:00 AM

            Undyne's Boss Theme
Undertale
Composed by: Toby Fox
Arranged by: earthboundin
Arranged on 10/28/2015


e---------------------------------------
B--8------------------------------------
G--7----7--10\9--5/7--------------------
D---------------------------------------  2x
A---------------------------------------
E---------------------------------------

e---------------------------------------
B--8---------------------------------6--
G--7----7--10\9--7\5--7--5--------7-----
D---------------------5-----8--7--------
A---------------------------------------
E---------------------------------------


Legend:

/ = slide(pull or hammer works too)
        
Comments

No comments yet