Gametabs
Home
Tabs
Random

Snowy

Average rating: 5.000

11 ratings

Composer:

Tabber:

Style:

Instrument:

Created: August 19, 2017 at 12:00 AM

            
                                                Snowy                                                     
                                  from game " UNDERTALE "

Music by Toby Fox



Standard Tuning (EADGBE)

Adagio (q=60)

      >     >      >         >                                    >     >      >         >        >     >     >     >      
      E  E  E  S S E  E      E  E                                 E  E  E  S S E  E      E  E     E  E  E  E  E  E  E  E   
E||--------------------------------|---------------------------|-------------------------------|--------------------------|
B||---3-----0----------------------|---------------------------|--2-------------------------3--|--0-----------------------|
G||*--------0----0-2--4--2g4g2--0--|-----------o-/-------------|--------2---------0--2g4g2-----|--------2-----------2-----|
D||*-----------0-------------2-----|------------/-o------------|--------4----2-4---------2-----|--------4-----------5-----|
A||---3------------3---------------|---------------------------|--2--------4---2---------------|--2-----------2-----------|
E||--------------------------------|---------------------------|-------------------------------|--------------------------|


  >     >      >       >                                      >     >      >     >          >     >     >     >        
  E  E  E  S S E  E    E  E                                   E  E  E  S S E  E  S S S S    E  E  E  E  E  E  E  E     
-----------------------------|-----------------------------|---------------------0-------|---------------------------||
--3-----0--------------------|-----------------------------|--2--------------------3---2-|---------------------------||
--------0----0-2--4--4g2--0--|------------o-/--------------|--------2------2--4----------|--2-----2-----------2-----*||
-----------0-----------2-----|-------------/-o-------------|--------4--2-4-------2-------|--------4-----------5-----*||
--3------------3-------------|-----------------------------|--2------------2-------------|--2-----------2------------||
-----------------------------|-----------------------------|-----------------------------|---------------------------||


  >     >      >     >         >      >     >     >        >     >      >     >         >     >     >     >      
  E  E  E  S S E  E  E  S S    S S E  E  E  E  E  E  E     E  E  E  S S E  E  E  S S    E  E  E  E  E  E  E  E   
------------------1--6----5-|--3-1----------------------|------------------0--5----7-|--2-----------------------|
--3-----3----1-3-----6------|------3--------------3-----|--2-----2----0-2-----5------|--------2-----------2-----|
--------3--3---------5------|---------3-----------5-----|--------2--2---------4------|--------2-----------4-----|
--1------------1------------|--1------3-----------------|--0------------0------------|--0-----------0-----------|
----------------------------|---------------6-----------|----------------------------|--------------------------|
----------------------------|---------------------------|----------------------------|--------------------------|


  >     >      >     >         >      >        >     >        >     >      >     >         >     >      >     >       
  E  E  E  S S E  E  E  S S    S S E  E  E     E  E  E  E     E  E  E  S S E  E  E  S S    E  E  E  S S E  E  E  S S  
------------------1--6----5-|--3-1-------------------------|------------------0--5----2-|--4---------------2--7----4-|
--------3----1-3-----6------|------3--1--6-5g4g3-----3-----|--------2----0-2-----5------|--------4----2-4-----5------|
--------3--3---------5------|---------3--------------5-----|--------2--2---------4------|--------4--4---------6------|
--1------------1------------|--1---------------------------|--0------------0------------|--2------------2------------|
----------------------------|------------------6-----------|----------------------------|----------------------------|
----------------------------|------------------------------|----------------------------|----------------------------|


  >     >     >     >  >     >            
  E  E  E  E  E  E  E  E     E  E  Q      
--6-----------------------|-------------||
--------7-----------7-----|--7----------||
--------6-----------4-----|-------------||
--4-----------4--------6--|--8----------||
--------------------------|-------------||
--------------------------|-------------||  fine....


        
Comments

@Vaagur (August 31, 2017 at 9:53 PM)

Can't stop playing it. xD