Gametabs
Home
Tabs
Random

Snowdin Town

Average rating: 4.944

36 ratings

Composer:

Tabber:

Style:

Instrument:

Created: March 02, 2016 at 12:00 AM

            Snowdin Town
From Undertale
Composed by Toby Fox
Arranged by Brent Quinn


Capo on 1.

   E   E   E   E   E   E   E   S  S    E   E   E   Q    E   Q      E   E   E   E   E   E   E   S  S
E|-----------------------------------|---------------------------|-----------------------------------|
B|-3---------------------------------|-0-------------------------|-3---------------------------------|
G|---------0-------2-----------0--2--|-----0---------------------|---------0-------2-----------0--2--|
D|-----0-------0---------------------|---------0------------0----|-----0-------0---------------------|
A|-3---------------2-----------------|-0-----------2----3---0----|-3---------------2-----------------|
E|-----------------------------------|-------------3-------------|-----------------------------------|


   E   E   E   Q    E   Q      E   E   E   E   E   E   E   S  S    E   E   E   Q    E   Q
E|---------------------------|-----------------------------------|---------------------------|
B|-0---1---0--------0--------|-3---------------------------------|-0-------------------------|
G|-------------2--------0----|---------0-------2-----------0--2--|-----0---------------------|
D|-------------0--------2----|-----0-------0---------------------|---------0------------0----|
A|-0-------------------------|-3---------------2-----------------|-0-----------2----3---0----|
E|---------------------------|-----------------------------------|-------------3-------------|

                                                                                         |--3--|
   E   E   E   E   E   E   E   S  S    E   E   E   H     E     E   E   E   S  S  E   E   S  S  S  E
E|-----------------------------------|-----------------------|----------------------------------------|
B|-3---------------------------------|-0---1---0-------------|-3--------------------------------------|
G|---------0-------2-----------0--2--|-------------2-----L---|-----0---2------0--2---4---2h-4p-2--0---|
D|-----0-------0---------------------|-------------0-----L---|-------------0--------------------------|
A|-3---------------2-----------------|-0---------------------|-3--------------------------------------|
E|-----------------------------------|-----------------------|----------------------------------------|

                             |--3--|
   E   E   E   S  S  E   E   S  S  S  E     E   E   E   E   E   E   E   E     E   E   E   Q    E   S  S  E
E|----------------------------------------|-----------------------------0---|--------------------------------|
B|-3--------------------------------------|-0-----------0---1---0---1-------|-3-------0---1----3-------------|
G|-----0---2------0--2---4---2h-4p-2--0---|---------0---------------2-------|-----0----------------4p-2p-0---|
D|-------------0--------------------------|-------------0-------2-------2---|--------------------------------|
A|-3--------------------------------------|-----2-----------0---------------|-2------------------------------|
E|----------------------------------------|-3-------------------------------|--------------------------------|


                             |--3--|                                  |--3--|
   E   E   E   S  S  E   E   S  S  S  E     E   E   E   S  S  E   E   S  S  S  E 
E|----------------------------------------|----------------------------------------|
B|-3--------------------------------------|-3--------------------------------------|
G|-----0---2------0--2---4---2h-4p-2--0---|-----0---2------0--2---4---2h-4p-2--0---|
D|-------------0--------------------------|-------------0--------------------------|
A|-3--------------------------------------|-3--------------------------------------|
E|----------------------------------------|----------------------------------------|

                                                                                              |--3--|
   E   E   E   E   E   E   E.   S    E   E   E   Q    E   E   E     E   E   E   S  S  E   E   S  S  S  E
E|---------------------------------|------------------------------|----------------------------------------|
B|-0-----------0---1---0-----------|------------------------------|-3--------------------------------------|
G|---------0---------------2----0--|-0-----------0----------------|-----0---2------0--2---4---2h-4p-2--0---|
D|-------------0-----------0-------|---------0--------4p--0-------|-------------0--------------------------|
A|-----2-----------3---------------|-----2--------------------0---|-3--------------------------------------|
E|-3-------------------------------|-3----------------------------|----------------------------------------|


                             |--3--|
   E   E   E   S  S  E   E   S  S  S  E     E   E   E   E   E   E   E   E     E   E   E   Q    E   S  S  E
E|----------------------------------------|-----------------------------0---|--------------------------------|
B|-3--------------------------------------|-0-----------0---1---0---1-------|-3-------0---1----3-------------|
G|-----0---2------0--2---4---2h-4p-2--0---|---------0---------------2-------|-----0----------------4p-2p-0---|
D|-------------0--------------------------|-------------0-------2-------2---|--------------------------------|
A|-3--------------------------------------|-----2-----------0---------------|-2------------------------------|
E|----------------------------------------|-3-------------------------------|--------------------------------|


                             |--3--|                                  |--3--|
   E   E   E   S  S  E   E   S  S  S  E     E   E   E   S  S  E   E   S  S  S  E 
E|----------------------------------------|----------------------------------------|
B|-3--------------------------------------|-3--------------------------------------|
G|-----0---2------0--2---4---2h-4p-2--0---|-----0---2------0--2---4---2h-4p-2--0---|
D|-------------0--------------------------|-------------0--------------------------|
A|-3--------------------------------------|-3--------------------------------------|
E|----------------------------------------|----------------------------------------|

   E   E   E   E   E   E   E.   S    E   E   E   Q    E   E   E     E   E   E   E   E   E   E   E
E|---------------------------------|------------------------------|---------------------------------|
B|-0-----------0---1---0-----------|------------------------------|-----3---3---3---3---1---0---1---|
G|---------0---------------2----0--|-0-----------0----------------|---------------------------------|
D|-------------0-----------0-------|---------0--------4p--0-------|---------------------------------|
A|-----2-----------3---------------|-----2--------------------0---|-2-----------2-----------2-------|
E|-3-------------------------------|-3----------------------------|---------------------------------|


   Q    E   E   Q    Q      E   E   E   E   E   E   E   E     E   E   E   Q    E   Q  
E|------3-----------------|---------------------------------|---------------------------|
B|-3------------3---------|-----3---3---3---3---1---0---1---|-3-------------------------|
G|------------------------|---------------------------------|-----2-------0-------------|
D|------------------------|---------------------------------|-0-------4---2----4---2----|
A|-3--------3--------3----|-2-----------2-----------2-------|---------------------------|
E|------------------------|---------------------------------|---------------------------|


   E   E   E   E   E   E   E   E     Q    E   E   Q    E   S  S    E   E   E   E   E   E   E.  S
E|---------------------------------|------3----------------------|-7---7---7---7---7-------7---12--|
B|-----3---3---3---3---1---0---1---|-3------------3--------8h-10-|---------------------10----------|
G|---------------------------------|-----------------------------|-0-----------------------0-------|
D|---------------------------------|-----------------------------|---------------------------------|
A|-2-----------2-----------2-------|-3--------3------------------|-0-------------------------------|
E|---------------------------------|-------------------8---------|-------------------------8-------|

   
   W
E|-10-----|
B|-10-----|
G|--------|
D|-0------|
A|--------|
E|--------| Repeat ad infinitum




        
Comments

@Chase99234 (March 03, 2016 at 1:27 AM)

Awesome tab, it sounds great but I think it should be played with Capo 1.


@quinndangle2 (March 03, 2016 at 1:41 AM)

yes it should! I put that in the forum submission but forgot to add it to the text file... oops


@gentlemenace (March 03, 2016 at 1:48 AM)

Easy to play and sounds great!


@Choogly (March 10, 2016 at 3:59 PM)


@GabrielBocanegra (March 12, 2021 at 9:04 PM)

Hell yeah bro!!!!!

You should work on a Jevil's them Quinn!