Gametabs
Home
Tabs
Random

Save the World

Average rating: 5.000

2 ratings

Composer:

Tabber:

Style:

Instrument:

Created: November 07, 2015 at 12:00 AM

                                            Save the World                                  


                                                                        Toby Fox
Track 1



      H        H           W                   H        Q    E  E   
E||------------2--------|-------------------|-----------2----4--2--|
B||---------------------|--2----------------|----------------------|
G||*--------------------|-------------------|--4-------------------|
D||*--4-----------------|-------------------|----------------------|
A||---------------------|-------------------|----------------------|
E||---------------------|-------------------|----------------------|


  E  Q    Q    S  S Q       Q    E  E  Q    Q       Q    E  E  E  S  S Q     
--L----------------------|-----------------------|--------------------------|
-----4----2----4p-2------|----------2--4---------|--2----2--4--2--4p-2------|
--------------------4----|--4----4----------4----|---------------------4----|
-------------------------|-----------------------|--------------------------|
-------------------------|-----------------------|--------------------------|
-------------------------|-----------------------|--------------------------|


  Q    Q    Q    Q       H        H              E  E  E  E  E  E  E  E   
----------------------|---------------------||---------------------------|
--3----2---------2----|-----------2---------||------------2-----------2--|
------------2---------|--4-----------------*||*--------4-----------4-----|
----------------------|--------------------*||*-----4-----------4--------|
----------------------|---------------------||---------------------------|
----------------------|---------------------||---------------------------|


  E  E  E  E  E  E  E  E       Q    Q    E  Q    E     E  S  S Q    Q    Q     
--------------------------|--2g4--------------------|-------------------------|
-----------2-----------2--|---------4----2-------2--|--L--4p-2----------------|
--------4-----------4-----|-----------------4-------|----------4---------1----|
-----5-----------5--------|-------------------------|---------------4---------|
--------------------------|-------------------------|-------------------------|
--------------------------|-------------------------|-------------------------|


  Q    E  E  Q    Q       Q    E  E  E  S  S Q       Q    Q    Q    Q     
-----------------------|--------------------------|----------------------|
----------2--4---------|--2----2--4--2--4p-2------|--3----2---------2----|
--4----4----------4----|---------------------4----|------------2---------|
-----------------------|--------------------------|----------------------|
-----------------------|--------------------------|----------------------|
-----------------------|--------------------------|----------------------|


  H        H              Q    Q    Q    Q       E  Q    Q    S  S Q     
---------------------||---2-------------------|-------------------------|
-----------2---------||-------------2---------|----------2----4p-2------|
--4-----------------*||*-------4---------4----|-----4--------------4----|
--------------------*||*----------------------|--4----------------------|
---------------------||-----------------------|-------------------------|
---------------------||-----------------------|-------------------------|


  Q    Q    E  Q    E     E  S  S  Q    Q    Q     4x   Q    Q    Q    Q     
-----------------------|---------------------------||---2-------------------|
------------2--5----4--|--L--5p-4p-2---------------||-------------2---------|
-------4---------------|----------------4---------*||*-------4---------4----|
--4--------------------|---------------------4----*||*----------------------|
-----------------------|---------------------------||-----------------------|
-----------------------|---------------------------||-----------------------|


  E  Q    Q    S  S Q       Q    Q    E  Q    E     E  S  S  Q    Q    Q     
-------------------------|-----------------------|--------------------------|
----------2----4p-2------|------------2--5----4--|--L--5p-4p-2--------------|
-----4--------------4----|-------4---------------|----------------4---------|
--4----------------------|--4--------------------|---------------------4----|
-------------------------|-----------------------|--------------------------|
-------------------------|-----------------------|--------------------------|


  Q    Q    Q    Q       E  Q    Q    S  S Q       Q    Q    E  Q    E   
--2-------------------|-------------------------|--2---------7--6-------|
------------2---------|----------2----4p-2------|--------------------7--|
-------4---------4----|-----4--------------4----|-------4---------------|
----------------------|--4----------------------|-----------------------|
----------------------|-------------------------|-----------------------|
----------------------|-------------------------|-----------------------|


  E  E  E  Q    E  E  E   4x
--------------------------||
--L--4--------------------||
--------6--4----6--4-----*||
----------------------4--*||
--------------------------||
--------------------------||
        
Comments

No comments yet