Gametabs
Home
Tabs
Random

Once Upon a Time

Average rating: 3.500

2 ratings

Composer:

Tabber:

Style:

Instrument:

Created: November 13, 2015 at 12:00 AM

            Title: Once Upon a Time
Source: Undertale
Composer: Toby Fox
Tabbed by LotoSage


This is my first ever tab. It will only contain the opening and closing portions of the song, as the middle section
doesn't seem to translate very well to the mandolin. Perhaps I'll figure something out eventually. 


Intro:
G|-----------------------------------------------------------------------
D|-----------------------------------------------------------------------
A|--3-----10----8-----3----3--8------------10--8-------------------------
E|-----8-----------8-------------8--10--8-------------------------------- x2

Outro:
G|-----------------------------------------------------------------------
D|-----------------------------------------------------------------------
A|-----8--10--8--2--8--10--8--1--8--10--13--12--10--8--3-----------------
E|--8--------------------------------------------------------------------  x4, fade out

        
Comments

@S1neztro (March 09, 2016 at 10:23 PM)

The only thing I would recommend is flipping it since the lowest note (G) should be at the bottom and E should be at the top