Gametabs
Home
Tabs
Random

Once Upon a Time

Average rating: 4.000

4 ratings

Composer:

Tabber:

Style:

Instrument:

Created: November 08, 2015 at 12:00 AM

            Once Upon A Time
From Undertale
Composed by tobyfox
Tabbed by Alleeelex
13 October 2015

66 BPM
4/4 Time
                                                                              1st ending
    Q    Q    Q    Q         Q    Q    Q    Q         Q    Q    Q    Q         Q    Q    Q    Q
e|-------20---15----------|--13---20---------------|-------13---20---22-----|--20---15---13----------|
B|--13--------------------|------------13----------|--13--------------------|------------------------|
G|*-----------14---L------|--13---L----12---L------|------------------------|------------12---------*|
D|*-15---L----------------|------------------------|--15---L----19---L------|--18---L---------------*|
A|------------------------|------------------------|------------------------|------------------------|
E|------------------------|------------------------|------------------------|------------------------|

 2nd ending
   Q    Q    E      S S
|--20---15---13----------|
|------------------------|
|------------12----------|
|--18---------------8h9h-|
|------------------------|
|------------------------|
        .  .  .                                              .  .  .
   Q    E  E  E  E  E  E     Q    E.  S  S  H           Q    E  E  E  E  E  E     Q    Q    E  E  E  E
|-------8-----------------|-------12p-11p10-8--------|-------8-----------------|-------------------------|
|----------10-8-----------|--8-----------------------|----------10-8-----8--10-|-------8----8------------|
|*---------------10-9--10-|--------------------------|--7-------------10-------|--9------------10-9--10-*|
|*-10---------------------|--------------------------|-------------------------|------------------------*|
|-------------------------|--------------------------|-------------------------|-------------------------|
|-------------------------|--------------------------|-------------------------|-------------------------|
|  E  E  E  E  E  E  E  E    E  E  E  E  E  E  E  E     E  E  E  E  E  E  E  E    E  E  E  E  E  E  E  E |
|-------------------------|--------------------------|-------------------------|-------------------------|
|-------------------------|--------------------------|-------------------------|-------------------------|
|*-------0-----------0----|--------0-----------0-----|--------0-----------0----|--------0---------------*|
|*----3-----3-----3-----3-|-----3-----3-----3-----3--|-----3-----3-----3-----3-|-----3-----3--0--3------*|
|--1-----------1----------|--0-----------------------|--------------3----------|--0-----------------3--3-|
|-------------------------|--------------4-----------|--3----------------------|-------------------------|

                            Repeat 4 times and fade out.  Notes in ( ) first 2 times.
   E  E  E  E  E  E  E  E     E  E  E  E  E  E  E  E
|--20----------------------|-----------18-17-----------||
|-----18-20-18----18-20-18-|-----18-20-------20-18-----||
|*-------------16----------|-----------------------17-*||
|*(15)--------(17)---------|--20---------(15)---------*||
|--------------------------|---------------------------||
|--------------------------|-(18)----------------------||

Duration Legend
---------------
W - whole
H - half
Q - quarter
E - 8th
S - 16th
. - note dotted

Articulation
------------
. - Staccato

Tab Legend
----------
h - hammer on
p - pull off
        
Comments

No comments yet