Gametabs
Home
Tabs
Random

Good Night

Average rating: 5.000

1 ratings

Composer:

Tabber:

Style:

Instrument:

Created: April 05, 2017 at 12:00 AM

            Good Night
Song by Toby Fox
Arranged by John Lee
Dropped D Tuning
Capo 2



     Q    Q    H           Q    Q    H           Q    Q    H           W                 
E||------------5--------|--0------------------|------------5--------|-------------------|
B||---------------------|--2------------------|--3------------------|-------------------|
G||--2---------2--------|------------2--------|---------------------|--2----------------|
D||------------0--------|---------------------|------------2--------|--2----------------|
A||-------0-------------|-------4-------------|-------3-------------|--5----------------|
D||--0------------------|--4------------------|--3------------------|--2----------------|


  Q    Q    H           Q    Q    H           Q    Q    H           W                          
---------------------|--5---------7--------|--5---------0--------|-------------------|-------||
------------3--------|--7------------------|--6------------------|--3----------------|-------||
--2------------------|---------------------|---------------------|--2----------------|-------||
------------0--------|---------------------|------------2--------|--2----------------|-------||
-------0-------------|-------4----7--------|-------3-------------|-------------------|-------||
--0------------------|--4------------------|--3------------------|--2----------------|-------||




Duration Legend
---------------
W - whole
H - half
Q - quarter
E - 8th

        
Comments

No comments yet