Gametabs
Home
Tabs
Random

You Are My Love

Average rating: 5.000

5 ratings

Composer:

Tabber:

Style:

Instrument:

Created: July 31, 2013 at 12:00 AM

                                  You are my love - 『ツバサ-RESERVoir CHRoNiCLE-』 Tsubasa Chronicle

 Music by 梶浦 由記 Kajiura Yuki, guitar arr. by Diralark  (OST : http://www.youtube.com/watch?v=wNPGS_bOAOc)

Std tuning, Nylon Guitar (Capo 3), let ring, Tempo=68

                                                       ^                       ^                           
     E  E  E  E  H           E  E  E  E  Q    E  E     Q.     E  E.  E.  E     E  E  E   E    Q     E  E   
E||-----------------------|-------------------------|-----------------------|-----------------------------|
B||-----------0--1--------|-----------0--1----1--0--|---------0--1---3---1--|--0--------------------------|
G||--------2--------------|--------2----------------|--2--------------------|-----0--0-------(0)----2--0--|
D||-----2-----------------|-----2-------------------|--2---------2----------|-----------(2)---------------|
A||--0--------------------|--0----------------------|--0--------------------|-----------------------------|
E||-----------------------|-------------------------|-----------------------|--0--------------------------|


                       III       --        -]                                                                           
             ^                                                                 ^                                        
  Q    E  E  E  S  E.  S   S     E    E    E    E     Q     E  E     Q.     E  E.  E.  E     E   E    Q     E.  E.  E   
-----------------------------|------------------------------------|-----------------------|----------------------------|
-----------------------------|------------------------------------|-----------------------|----------------------------|
----------0--2--2p-0---------|------------------------------------|-----------------------|----------------------------|
--3--------------------3h--5-|--------L--------(0)h--(2)----3--2--|---------2--3---2---0--|--2---L--------------0---2--|
-------3---------------------|--(3)-------(3)---------------------|--5---------5----------|--2--(2)---------3----------|
--1----------3---------------|-------(3)--------------------------|-----------------------|----------(0)---------------|


                                                         ^                         ^                      
  E  E  E  E  H           E  E  E  E  Q    E  T  T  S    E  E  E  E  E.  E.  E     E  E  Q    Q    E  E   
-----------------------|------------------------------|-------------------------|------------------------|
-----------0--1--------|-----------0--1----1--0h-1p-0-|-----------0--1---3---1--|--0---------------------|
--------2--------------|--------2---------------------|--2-----2----------------|-----0--0---------2--0--|
-----2-----------------|-----2------------------------|-----2--------2----------|------------------------|
--0--------------------|--0---------------------------|--0----------------------|--------2---------------|
-----------------------|------------------------------|-------------------------|--0----------0----------|


                        III      --    -]                                                                         
              ^                                                             ^                                     
  E  E  E  E  E  S  E.  S   S    E  E  E  E  Q    E  T  T  S    E  E  E  E  E.   E.  E     E  E  Q    E.  E.  E   
------------------------------|------------------------------|--------------------------|------------------------|
------------------------------|------------------------------|--------------------------|------------------------|
-----------0--2--2p-0---------|------------------------------|-----2--------------------|------------------------|
--3-----3---------------3h--5-|--L--------0--2----3--2h-3p-2-|--0--------2--3p---2---0--|--2--L-----------0---2--|
-----3------------------------|--3-----3-----3---------------|--------0-----5-----------|--2--2-------3----------|
--1-----------3---------------|-----3------------------------|--------------------------|--------0---------------|


                                         ^              ^                                                    
  E  E  E  E  E  E  E  E     E  E  E  E  E  E  E  E     E  E  E  E  E  E  E  E     E  E  E  E  E  S E  S E   
--------------------------|--------------------------|--0-----------------------|-----0--0------------------|
-----------0--1-----0-----|-----------0--1-----3-----|--1--------0--1--------3--|--3-----------0------------|
--------2-----2-----------|--2-----2-----2-----------|--------2-----2--2--------|--0-----0----------0----2--|
-----2-----------2-----2--|--2--2-----------2-----2--|-----2--------------2-----|-----------2-----2---------|
--0-----------0-----------|--0-----------0-----------|--0-----------0-----------|--------------2-------2----|
--------------------------|--------------------------|--------------------------|--0------------------------|


                                                ^                    ^                                        
  E  E  E  E  E  S E  S E     E  E  E  E  E  E  E  E     E  E  E  E  E  E  E  E     E  E  E  E  E  S E  S E   
---------------------------|--------------------------|--------------------------|-----0--0------------------|
-------------------0----1--|--1--------------------0--|-----------0--1--------3--|--3-----------0------------|
--2--2--------0------------|--0--0--------------1-----|--2-----2-----2-----2-----|--0----------------0----2--|
--3--------3----------0----|--------2--------0--0-----|-----2-----------2--------|-----------2-----2---------|
--------3--------2---------|--3--------3--2-----------|--0-----------0-----------|--------2-----2------------|
--1-----------3------------|--------------0-----------|--------------------------|--0-------------------0----|


  ^                           ^                          ^           ^               ^           ^            
  E  E  E  E  E  S E  S E     E  E  E  E  E  E  E  E     E  E  E  E  E  S E  S E     E  E  E  E  E  E  E  E   
---------------------------|--------------------------|---------------------------|--------------------------|
-------------------0----1--|--1-----------0-----0--1--|--1--------1--0------------|--------------------------|
--2--------2--0------------|--0-----0-----1-----1-----|-----2-------------0----2--|--2--------2--0--------0--|
--------3-----0--0---------|-----2-----2--0-----------|--------2-----2------------|--------3--------2--------|
-----3---------------------|--3-----3--------2--------|--0--------------2----2----|-----3--------3-----3-----|
--1-------------------3----|--------------0-----------|---------------------------|--1-----------------------|


                                                                     VII                                   
  ^                                                                  ^             ^           ^           
  E  E  E  E  E  S  E.  E     E  E  E  E  E  E  E  E     E  E  E  E  Q    E  E     E  E  E  E  E.  E.  E   
---------------------------|--------------------------|--0-----------7----------|-------------------------|
---------------------------|--------------0-----------|--0--0-----0--9----1--0--|-----------0--1---3---1--|
---------------------------|--1-----------1--1-----1--|--1-----1-----9----------|--2-----2----------------|
--3--------3--2---------0--|--2--2-----2--2-----2-----|--2----------------------|-----2--------2----------|
--5-----5--------0h-3------|--2-----2-----2-----------|--------------7----------|--0----------------------|
-----5---------------------|--0-----------------------|-------------------------|-------------------------|


                                                  III      --    -]                  II              -]      
  ^                                                                    ^                         ^           
  E  E  E  E  Q    E  E     E  E  E  E  E  S  E.  S   S    E  E  E  E  Q    E  E     E  E  E  E  E.  E.  E   
-------------------------|------------------------------|-------------------------|-------------------------|
--0----------------------|------------------------------|-------------------------|-------------------------|
-----0--0-----0----2--0--|-----------0--2--2p-0---------|-------------------------|-----2-------------------|
-----------2-------------|--3-----3---------------3h--5-|--L--------0--2----3--2--|-----------2--3---2---0--|
--------2----------------|-----3------------------------|--3-----3-----3----------|--5-----5-----5----------|
--0----------------------|--1-----------3---------------|-----3-------------------|-------------------------|


                                                     V                              V           -]           
  ^                                                  ^                              ^                        
  E  E  Q    E.  E.  E     E  E  E  E  E  E  Q       E  E  E  E  Q    E  T  T  S    E  E  E  E  Q     E  E   
------------------------|--------------------0----|--5-----5--7--8----8--7h-8p-7-|--5-----5--7--8----10--8--|
------------------------|-----------0--1----------|-----5--------5---------------|-----5--------5-----------|
------------------------|--------2--------2-------|------------------------------|--------------------------|
--2--L-----------0---2--|-----2-------------------|------------------------------|--------------------------|
--2--2-------3----------|--0----------------------|--0---------------------------|--0-----------------------|
--------0---------------|-------------------------|------------------------------|--------------------------|


                             ^                           ^                                          ^             
  E  E  E  E  E  E  E  E     E  E  E  E  E  S  E.  E     E  E  E  E  Q    E  T  T  S    E  E  E  E  E  S  E.  E   
--7--3--3-----------5--3--|--1-----1--3--5--5p-3------|--3----------------1--0h-1p-0-|-----------0--1--1p-0------|
--------0--0-----0--------|-----1------------------6--|-----------1------------------|--3-----3-----3---------3--|
--------------------------|--------------0------------|--------0---------------------|-----2---------------------|
--------------2-----------|---------------------------|-----2------------------------|--0-----------0------------|
--------------------------|---------------------------|--3-----------3---------------|---------------------------|
--0-----------------------|--1------------------------|------------------------------|---------------------------|


               ^                                                     ^              ^                        
  E  E  E  E   E.   E.  E     E  E  E  E  E  E  E  E     E  E  E  E  E  E  E  E     E  E  E  E  E  E  E  E   
--0---------------------0--|--------------------------|--------------------------|--0-----------------------|
--0-----------(1)---3------|-----------0--1-----0-----|-----------0--1-----3-----|-----------0--1--------3--|
--1-----1------1-----------|--------2-----------------|--2-----2-----------------|--------2--------2--------|
-----2-----2---------------|-----2-----------2-----2--|-----2-----------2-----2--|-----2--------------2-----|
--2------------------------|--0-----------0-----------|--0-----------0-----------|--0-----------0-----------|
---------------------------|--------------------------|--------------------------|--------------------------|


                                                                            ^                                       
  E  E  E  E  E  S E  S E     E  E  S S S  S E  S E  S E     E  S S S S S S E  E  E  E     E  E  E  E  E  E  E  E   
-----0--0------------------|------------------------------|-----------------------------|--------------------------|
--3-----------0------------|----------------------0----1--|--1--------1-----0--------0--|-----------0--1--------3--|
--------0----------0----2--|--2---------0h-2-0------------|-------0-------0-1-----1-----|--2-----2-----2-----2-----|
-----------2-----2---------|-----3----3------0-------0----|---------2-------0--0--0-----|-----2-----------2--------|
--------------2-------2----|--------3-----------2---------|--3--3-------3---2-----------|--0-----------0-----------|
--0------------------------|--1--------------3------------|-----------------------------|--------------------------|


                                                                               ^        ^           ^            
  E  E  E  E  E  S E  S E     E  E  S S S  S E  S E  S E     E  E  E  E  E  E  E  E     E  E  E  E  E  E  E  E   
-----0--0------------------|------------------------------|--------------------------|--------------------------|
--3-----------0------------|----------------------0----1--|--1-----1-----0-----0--1--|--1--------1--0-----------|
--0----------------0----2--|--2---------0h-2-0------------|--0-----0-----1-----1-----|-----2-----------------0--|
-----------2-----2---------|-----3----3------0--0---------|-----2-----2--0-----------|--------2-----------2-----|
--------2-----2------------|--------3---------------------|--3-----3--------2--------|--0--------------2--------|
--0-------------------0----|--1----------------------3----|--------------0-----------|--------------0-----------|


                                                                                        VII                             
  ^           ^              ^                         ^         ^            ^         ^                               
  E  E  E  E  E  E  E  E     E  E  E  E  Q    E  E     Q    Q    Q    Q       Q    Q    H           H.           E  E   
--------------------------|-------------------------|----------------------|--0---------7--------|---------------------|
--------------------------|-------------------------|------------0---------|--0----0----9--------|---------------1--0--|
--2--------2--0--------0--|-------------------------|--1---------1---------|--1---------9--------|---------------------|
--------3--------2--------|--3--------3--2-------0--|--2---------2----2----|--2------------------|---------------------|
-----3--------3-----3-----|--5-----5----------3-----|--2----2----2---------|------------7--------|---------------------|
--1-----------------------|-----5-------------------|--0-------------------|---------------------|---------------------|


                                                                             III       --        -]                     
  ^                                                                                                                     
  Q.     E  E.  E.  E     E  E  E   E    Q     E  E     Q    E  E  E  S  E.  S   S     E    E    E    E    Q     E  E   
-----------------------|-----------------------------|-----------------------------|-----------------------------------|
---------0--1---3---1--|--0--------------------------|-----------------------------|-----------------------------------|
--2--------------------|-----0--0-------(0)----2--0--|----------0--2--2p-0---------|-----------------------------------|
--2---------2----------|-----------(2)---------------|--3--------------------3h--5-|--------L--------(0)--(2)----3--2--|
--0--------------------|-----------------------------|-------3---------------------|--(3)-------(3)--------------------|
-----------------------|--0--------------------------|--1----------3---------------|-------(3)-------------------------|


  Q.     E  E.   E.  E     E   E    Q     E.  E.  E     E  E  E  E  H           E  E  E  E  Q    Q     
------------------------|----------------------------|-----------------------|-------------------0----|
------------------------|----------------------------|-----------0--1--------|-----------0--1---------|
------------------------|----------------------------|--------2--------------|--------2---------------|
---------2--3p---2---0--|--2---L--------------0---2--|-----2-----------------|-----2------------------|
--5---------5-----------|--2--(2)---------3----------|--0--------------------|--0---------------------|
------------------------|----------(0)---------------|-----------------------|------------------------|


 rall..........................................T=60
  V                       --       -]                V                                      
                                       ^             ^                                      
  E  E  E  E  H           E  E  E  E   Q     Q       W                   W                  
--5-----5--7--8--------|--------5--7---8----10----|--7----------------|--L----------------||
-----5-----------------|-----5--------10----------|--5----------------|--L----------------||
-----------------------|--------------------------|--5----------------|-------------------||
-----------------------|--------------------------|-------------------|-------------------||
--0--------------------|--------------------------|-------------------|-------------------||
-----------------------|--------------------------|--5----------------|--L----------------||

Legend
---------------
W - whole
H - half
Q - quarter
E - 8th
S - 16th
. - note dotted
L - tied note
g - grace note
(n) - ghost note
h - hammer on
p - pull off
^ - brush up

        
Comments

@ametueraspirant (July 02, 2014 at 6:26 AM)

:| that timing...


@sluongng (December 01, 2015 at 12:15 AM)

This is the most completed tab of this song i could find but clearly there is a part that is missing. Instead of finishing the chorus, this tab used a increment into decrement to avoid the job.... SHAME