Gametabs
Home
Tabs
Random

You Are My Love

Average rating: 5.000

6 ratings

Composer:

Tabber:

Style:

Instrument:

Created: April 15, 2010 at 12:00 AM

                                            You Are My Love                                 

Arr. by maikoi15011

Drop D tuning
Acoustic Guitar (Capo 3)
                                                                           
     E  E  E  E  H           E  E  E  E  Q    E  E     Q.     E  E.  E.  E   
E||-----------------------|-------------------1--0--|---------0--1---3---1--|
B||-----------------------|-------------------------|--3--------------------|
G||-----------------------|-------------------------|--2--------------------|
D||--------0--2--3--------|--------0--2--3----------|--3--------------------|
A||-----0-----------------|-----0-------------------|-----------------------|
D||--0--------------------|--0----------------------|--0--------------------|


  E  E  E  E  Q    E  E     Q    E  E  E  S E.  S S    E  E  E  E  Q    E  E   
--0----------------------|--------------------------|-------------------------|
-----1--1----------3--1--|----------1--3--3---------|-------------------------|
--2----------------------|--3----3-----3----5---3-5-|-----5-------------3--2--|
--2----------------------|--0----------3------------|--3-----3--5--7----------|
--0--------0--3----------|--1----------3------------|--3--3-------------------|
-------------------------|--------------------------|--3----------------------|


  Q.     E  E.  E.  E     E  Q.     E.  E.  E     E  E  E  E  H         
-----------------------|-----------------------|-----------------------|
-----------------------|-----------------------|-----------------------|
--0------2--3---2---0--|--2--2----------0---2--|-----2-----------------|
--0-------------0------|--5---------3----------|--------0--2--3--------|
--------------------1--|--0---------4----------|-----0-----------------|
--5---------5----------|-----------------------|--0--------------------|


    NH                                                                          
    E  E  E  E  Q    E  E     E  E  E  E  E.  E.  E     E  E  E  E  Q    E  E   
---------------------1--0--|-----------0--1---3---1--|--0----------------------|
---------------------------|--3-----------3-------3--|-----1--1----------3--1--|
----7----------------------|--2--------2-------------|--2-----2----------------|
--<>7-----0--2--3----------|--3-----3----------------|--2--2-------------------|
-------0-------------------|-----0-------------------|--0--------0--3----------|
----0----------------------|--0----------------------|-------------------------|


                                                   |--3--|  
  E  E  E  E  E  S S E  S S    E  E  E  E  Q    E  S  S  S  
----------------------------|------------------------------|
-----------1--3--3----------|------------------------------|
--3-----3-----3----5----3-5-|-----5-------------3--2h-3p-2-|
--0--0--------3--3---3------|--3-----3--5--7---------------|
--1-----------3-------------|--3--3------------------------|
----------------------------|--3---------------------------|


  E  E  E  E  E.  E.  E     E  E  E  E  E.  E.  E     E  E  E  E  Q    Q     
-------------------------|-------------------------|--------------1----0----|
-------------------------|-----------3--2----------|--------------3----1----|
--0-----0--2--3---2---0--|--2-----------2-------2--|-----2-----2------------|
--0--0--------0---0------|--5-----5-----3---5------|--0-----0---------------|
----------------------1--|--0--0-------------------|-----0------------------|
--5-----------5----------|-------------------------|--0---------------------|


  E  E  E  E  E  E  E  E     E  E  E  E  E  S S E  E   
--1-----------1-----3-----|-----------0--1----1----3--|
--3-----------3-----3--1--|--------3------------------|
-----------2-----2--------|--2--------0--2------2-----|
--------0-----------0-----|--------0--------3---------|
-----0--------------------|-----0---------------------|
--0-----------------------|--0------------------------|


  E  E  E  E  E  S S E  E     E  E  S S S S E  S S E  E   
--3--5--5------------------|---------------------0----1--|
--------------5---------3--|-----3--------3-1------------|
--------2-----2----5-------|--3---------3------0---0-----|
-----2-----2-----2---------|--3--3----3-----2------2-----|
--0------------------0-----|--1-----1-------3------------|
---------------------------|-----------------------------|


  E  S S S S S S Q    Q       E  E  E  E  E  S S E  E   
-----1---------------------|-----------0--1----1----3--|
-----------------3----2----|--------3------------------|
--0----0---0-----2----2----|--2--------0--2------2-----|
--3--3---3-----3-2----2----|--0-----0--------3---------|
--3------3-------0----4----|--0--0---------------------|
--3----------3-------------|--0------------------------|


  E  E  E  E  E  S S E  E     E  S S S S S S E  S S E  E   
--3--5--5------------------|----------------------0----1--|
--------------5---------3--|-----3---------3-1------------|
--------2-----2----5-------|--3------3---3------0---0-----|
-----2-----2-----2---------|--3--3-----3-----2------2-----|
--0------------------0-----|--1----1---------3------------|
---------------------------|------------------------------|


  E  E  E  E  Q    E  E     E  E  E  E  E  E  E  E     E  E  E  E  E  E  E  E   
--------------1----0--1--|--1--------1--0-----------|--------------------------|
--6-----------3----------|--------3--3--1-----1--3--|--3--------3--------------|
--5-----------2----2-----|--2-----2-----------2-----|--3-----3-----5-----2--3--|
--3-----3----------------|--3--------------2--------|--3--3--------3-----3-----|
-----3-----3--0----4-----|-----0--------0-----------|--1-----------3--3-----3--|
--3----------------------|--0-----------------------|--------------3-----------|


  Q    E  E  Q    Q       E  E  E  E  E.  E.  E     Q    H.            
-----------------------|-------------------------|-------5------------|
-----------------------|----------------------3--|--5----5------------|
--3----3--0--2---------|--2---------------2------|--6----6------------|
--0----0----------3----|--0--------0--2----------|--7-----------------|
-------------3---------|--0----------------------|--0----0------------|
--5----------3---------|-----2--5----------------|--------------------|


  H.           E  E     Q.     E  E.  E.  E     E  E  E  E  Q    E  E   
--L------------1--0--|---------0--1---3---1--|--0----------------------|
--L------------------|--3--------------------|-----1--1----------3--1--|
--L------------------|--2--------------------|--2----------------------|
---------------------|--3--------------------|--2----------------------|
--L------------------|-----------------------|--0--------0--3----------|
---------------------|--0--------------------|-------------------------|


  Q    E  E  E  S E.  S S    E  E  E  E  Q    E  E     Q.     E  E.  E.  E   
--------------------------|-------------------------|-----------------------|
----------1--3--3---------|-------------------------|-----------------------|
--3----3-----3----5---3-5-|-----5-------------3--2--|--0------2--3---2---0--|
--0----------3------------|--3-----3--5--7----------|--0-------------0------|
--1----------3------------|--3--3-------------------|--------------------1--|
--------------------------|--3----------------------|--5---------5----------|


  E  Q.     E.  E.  E     E  E  E  E  H           E  E  E  E  H         
-----------------------|-----------------------|-----------------------|
-----------------------|-----------------------|-----------------------|
--2--2----------0---2--|-----2-----------------|-----------------------|
--5---------3----------|--------0--2--3--------|--------0--2--3--------|
--0---------4----------|-----0-----------------|-----0-----------------|
-----------------------|--0--------------------|--0--------------------|


  E  E  E  E  E  E  E   E      W                  
---------------------------|--10----------------||
-----------------------10--|--------------------||
--------------------7------|--------------------||
--------0--------7---------|--------------------||
-----0-----7--8------------|--------------------||
--0------------------------|--------------------||




Duration Legend
---------------
W - whole
H - half
Q - quarter
E - 8th
S - 16th
. - note dotted
|-n-|  - n-tuplets


Tablature Legend
----------------
L - tied note
NH - natural harmonic
h - hammer on
p - pull off

        
Comments

@natenmn (April 15, 2010 at 5:43 PM)

Wow, you did a great job with this, Linsey! I haven't ever heard this before, but it is very pretty :).

Btw, when are you going to finally finish your Aerith's theme arrangement? Get crackin! XD


@TrangOul (April 15, 2010 at 5:45 PM)

I don't know the original version. But this sure is pretty!

Just making sure:

E  E  E  E  Q    E  E
---------------------1--0--|
---------------------------|
----<strong>7</strong>----------------------|
--<>7-----0--2--3----------|
-------0-------------------|
----0----------------------|
``` That 7 on 3rd string is not supposed to be a harmonic is it?

@TheDoomOfAllFires (April 15, 2010 at 7:16 PM)

Lovely piece. =)


@Maikoi92 (April 15, 2010 at 9:41 PM)

what aerith's theme arrangement!?? hides from nate

Yes Trang.. it is, actually the other 7 is supposed to be a harmonic too, I believe auri edited it in the guitar pro file ;o I noticed it too late, I'd already uploaded the tabs x.x

If you want to hear the original version; http://www.youtube.com/watch?v=rn2vrTx_5Wc

And thanks for the comments :3


@Brave Toaster (April 18, 2010 at 1:54 AM)

Hey, someone has actually tabbed this song! I am surprise that no one has done it until now. It is WAY beautiful.

Man, thank you VERY MUCH for sharing your work with us! This sounds AWESOME! The accompainment is great!


@dehivi (August 14, 2010 at 7:15 AM)

Is there any way to perform the song without the capo?