Gametabs
Home
Tabs
Random

U.N. Owen was her

Average rating: 5.000

3 ratings

Composer:

Tabber:

Style:

Instrument:

Created: April 14, 2020 at 12:00 AM

            UN OWEN WAS HER ? From Touhou 6
i used different parts from multiples covers on youtube to make this arrangment
Intro from : https://www.youtube.com/watch?v=FZcRCS7aY_0
measure 62 from : https://www.youtube.com/watch?v=KDx-zdLxiW4
measure 66 from : https://www.youtube.com/watch?v=_3G5l5Ke85o
Last part from : https://www.youtube.com/watch?v=cDz9X2X3MTc
 Also here his me playing it : https://youtu.be/QbfvN8FjkV4
Enjoy !

E|-2-------------------2-----|---------2---------------2-------|---------0---2---0-------5----|
B|---------3-------3---------|-0-------0-------2-------2---2---|-3-------3---3---3---0--------|
G|-----4-------4-------------|-0-----------0---2-----------2---|-4---4------------------------|
D|---------------------------|-----0---------------2-----------|------------------------------|
A|-2-------------------------|-----------------0---------------|-2---------------0------------|
E|---------------------------|-3-------------------------------|------------------------------|


E|-7-------9---10--9---10-9--7---5---|-----5---------------------------|---------2---------------2-------|
B|-----0-----------------------------|-7-------5---7---3-------3---2---|-0-------0-------2-------2---2---|
G|-----------------------------------|---------------------2-----------|-0-----------0---2-----------2---|
D|-----------------------------------|-0---------------0---------------|-----0---------------2-----------|
A|-----------------0-----------------|---------------------------------|-----------------0---------------|
E|-3---------------------------------|---------------------------------|-3-------------------------------|


E|---------0---2---0-------5----|-7-------9---10--9---10-9--7---5---|-7---------------7---7-----|
B|-3-------3---3---3---0--------|-----0-----------------------------|-------------7---7---7-----|
G|-4---4------------------------|-----------------------------------|---------7---7---7---7-----|
D|------------------------------|-----------------------------------|---------------------------|
A|-2----------------------------|-----------------0-----------------|-----9---9---9---9---9-----|
E|-----------------0------------|-3---------------------------------|-7---7---7---7---7---7-----|


E|-----------------------------------------------------|-----------------------------------------------------|
B|-3--------3--------3--------3--------2----2------2---|-3--------3--------3--------3--------5----5------5---|
G|----4--------4--------4--------4-----2----2------2---|----4--------4--------4--------4-----2----2------2---|
D|-------4--------4--------4--------4--2----2------2---|-------4--------4--------4--------4--2----2------2---|
A|-2-----------------------------------0----0------0---|-2-----------------------------------4----4------4---|
E|-----------------------------------------------------|-----------------------------------------------------|


E|-----------------------------------------------------|-----------------------------------------------------|
B|-3--------3--------3--------3--------2----2------2---|-3--------3--------3--------3--------5----5------5---|
G|----4--------4--------4--------4-----2----2------2---|----4--------4--------4--------4-----2----2------2---|
D|-------4--------4--------4--------4--2----2------2---|-------4--------4--------4--------4--2----2------2---|
A|-2-----------------------------------0----0------0---|-2-----------------------------------4----4------4---|
E|-----------------------------------------------------|-----------------------------------------------------|


E|-----------------------------------------------------|-----------------------------------------------------|
B|-3--------3--------3--------3--------2----2------2---|-3--------3--------3--------3--------5----5------5---|
G|----4--------4--------4--------4-----2----2------2---|----4--------4--------4--------4-----3----3------3---|
D|-------4--------4--------4--------4--2----2------2---|-------4--------4--------4--------4--2----2------2---|
A|-------------------------------------0----0------0---|-------------------------------------4----4------4---|
E|-3---------------------------------------------------|-3---------------------------------------------------|


E|-----------------------------------------------------|-----------------------------------------------------|
B|-3--------3--------3--------3--------2----2------2---|-3--------3--------3--------3--------5----5------5---|
G|----4--------4--------4--------4-----2----2------2---|----4--------4--------4--------4-----2----2------2---|
D|-------4--------4--------4--------4--2----2------2---|-------4--------4--------4--------4--2----2------2---|
A|-2-----------------------------------0----0------0---|-2-----------------------------------4----4------4---|
E|-----------------------------------------------------|-----------------------------------------------------|


E|-2---------1---------|-4--------------3----|-2---------1---------|-4---------------|
B|------3---------2----|------6----5---------|------3---------2----|------6----5-----|
G|---------------------|---------------------|---------------------|-----------------|
D|---------------------|---------------------|---------------------|-----------------|
A|-2----2----1----1----|-4----4----3----3----|-2----2----1----1----|-4----4----3-----|
E|---------------------|---------------------|---------------------|-----------------|


E|-2---------------1---------------|-4-----------------------3-------|-2---------------1---------------|
B|---------3---------------2-------|---------6-------5---------------|---------3---------------2-------|
G|-----4-------4-------3-------3---|-----6-------6-------5-------5---|-----4-------4-------3-------3---|
D|---------------------------------|---------------------------------|---------------------------------|
A|-2---2---2---2---1---1---1---1---|-4---4---4---4---3---3---3---3---|-2---2---2---2---1---1---1---1---|
E|---------------------------------|---------------------------------|---------------------------------|


E|-4---------------------|------2---------2----|------0---2---0----5----|-7-------9---10--9---10-9--7-------|
B|---------6-------5-----|-0---------2---------|-3----------------------|-----7-------------------------10--|
G|-----6-------6---------|---------------------|------------------------|-----------------------------------|
D|-----------------------|---------------------|------------------------|-----------------------------------|
A|-4---4---4---4---3-----|-----------0---------|-2------------0---------|-----------------0-----------------|
E|-----------------------|-3-------------------|------------------------|-3---------------------------------|


E|---------------------------------|------2---------2----|------0---2--------5----|
B|-7---10--5---7---3-------3---2---|-0---------2---------|-3------------5---------|
G|---------------------2-----------|---------------------|------------------------|
D|-0---------------0---------------|---------------------|------------------------|
A|---------------------------------|-----------0---------|-2----------------------|
E|---------------------------------|-3-------------------|--------------0---------|


E|-7-------9---10--9---10-9--7-------|-7---------------7----7----|---------2---------------2-------|
B|-----7-------------------------10--|-------------7--------7----|-0---------------2-----------2---|
G|-----------------------------------|---------7------------7----|-----0-------0-------2-----------|
D|-----------------------------------|-----9----------------9----|---------------------------------|
A|-----------------0-----------------|----------------------9----|-----------------0---------------|
E|-3---------------------------------|-7--------------------7----|-3-------------------------------|


E|---------0---2---0-------5----|-7-------9---10--9---10-9--7-------|---------------------------------|
B|-3----------------------------|-----7-------------------------10--|-7---10--5---7---3-------3---2---|
G|-----4---------------2--------|-----------------------------------|---------------------2-----------|
D|------------------------------|-----------------------------------|-0---------------0---------------|
A|-2---------------0------------|-----------------0-----------------|---------------------------------|
E|------------------------------|-3---------------------------------|---------------------------------|


E|---------2---------------2-------|---------0---2---0-------5----|-7-------9---10--9---10-9--7-------|
B|-0---------------2-----------2---|-3-------------------0--------|-----7-------------------------10--|
G|-----0-------0-------2-----------|-----4------------------------|-----------------------------------|
D|---------------------------------|------------------------------|-----------------------------------|
A|-----------------0---------------|-2----------------------------|-----------------0-----------------|
E|-3-------------------------------|-----------------0------------|-3---------------------------------|


E|-7---------------7-----|-7-----------7-----------7-----------7-----------|-7-----------7-----------7-----------7-----------|
B|-------------7---7-----|-----7-----------7-----------7-----------7-------|-----7-----------7-----------7-----------7-------|
G|---------7---7---7-----|---------9-----------9-----------9-----------9---|---------9-----------9-----------9-----------9---|
D|-----9---9---9---9-----|-------------------------------------------------|-------------------------------------------------|
A|-----------------------|-------------------------------------------------|-------------------------------------------------|
E|-7---7---7---7---7-----|-7-----------------------------------------------|-7-----------------------------------------------|


E|-6-----------6-----------6-----------6-----------|-6-----------6-----------6-----------6-----------|
B|-----7-----------7-----------7-----------7-------|-----7-----------7-----------7-----------7-------|
G|---------8-----------8-----------8-----------8---|---------8-----------8-----------8-----------8---|
D|-------------------------------------------------|-------------------------------------------------|
A|-6-----------------------------------------------|-6-----------------------------------9-----------|
E|-------------------------------------------------|-------------------------------------------------|


E|-6-----------6-----------4-----------4-----------|------------------------------------------|
B|-----7-----------7-----------6-----------6-------|-7-----------6---7---9----------------2---|
G|---------8-----------8-----------6-----------6---|-----8-------------------8----8---3-------|
D|-------------------------------------------------|---------8--------------------------------|
A|-------------------------4-----------------------|-6----------------------------------------|
E|-7-----------------------------------------------|------------------------------------------|


E|-------------------------------------------------|-------------------------6-----|
B|-4-----------4-----------6-----------6-----------|-6-----------6---7---9---7-----|
G|-----3-----------3-----------6-----------6-------|-----7-------------------8-----|
D|---------4-----------4-----------6-----------6---|---------8---------------------|
A|-2-----------------------4-----------------------|-5-----------------------6-----|
E|-------------------------------------------------|-------------------------------|


E|-6-----------6-----------4-----------4-----------|------------------------------------------|
B|-----7-----------7-----------6-----------6-------|-7-----------6---7---9----------------2---|
G|---------8-----------8-----------6-----------6---|-----8-------------------8----6---3-------|
D|-------------------------------------------------|---------8--------------------------------|
A|-------------------------4-----------------------|-6----------------------------------------|
E|-7-----------------------------------------------|------------------------------------------|


E|-------------------------------------------------|-------------------------6----6----6----|
B|-4-----------4-----------6-----------6-----------|-6-----------6---7---9---7----7----7----|
G|-----3-----------3-----------6-----------6-------|-----7-------------------8----8----8----|
D|---------4-----------4-----------6-----------6---|---------6------------------------------|
A|-2-----------------------4-----------------------|-5-----------------------6----6----6----|
E|-------------------------------------------------|----------------------------------------|


E|---------------------------------|---------------------------------|---------------------------------|
B|-3---------------2---------------|-6---------------5---------------|-----3-------3-------2-------2---|
G|---------------------------------|---------------------------------|-----4-------4-------3-------3---|
D|-----4-------4-------3-------3---|-----6-------6-------5-------5---|-----4-------4-------3-------3---|
A|-2-------2-------1-------1-------|-4-------4-------3-------3-------|-2-------2-------1-------1-------|
E|---------------------------------|---------------------------------|---------------------------------|


E|---------------------------------|---------------------------------|---------------------------------|
B|-----6-------6-------5-------5---|-3---------------2---------------|-6---------------5---------------|
G|-----6-------6-------5-------5---|---------------------------------|---------------------------------|
D|-----6-------6-------5-------5---|-----4-------4-------3-------3---|-----6-------6-------5-------5---|
A|-4-------4-------3-------3-------|-2-------2-------1-------1-------|-4-------4-------3-------3-------|
E|---------------------------------|---------------------------------|---------------------------------|


E|---------------------------------|---------------------------------|-2---------------1---------------|
B|-----3-------3-------2-------2---|-----6-------6-------5-------5---|-------------3-------2-----------|
G|-----4-------4-------3-------3---|-----6-------6-------5-------5---|---------4---------------3-------|
D|-----4-------4-------3-------3---|-----6-------6-------5-------5---|-----4-----------------------3---|
A|-2-------2-------1-------1-------|-4-------4-------3-------3-------|-2---------------1---------------|
E|---------------------------------|---------------------------------|---------------------------------|


E|-4---------------3---------------|-----------------1---------------|-4---------------3-----|
B|-------------6-------5-----------|-------------3-------2-----------|-------------6---5-----|
G|---------6---------------5-------|---------4---------------3-------|---------6-------5-----|
D|-----6-----------------------5---|-----4-----------------------3---|-----6-----------------|
A|-4---------------3---------------|-2---------------1---------------|-4---------------3-----|
E|---------------------------------|---------------------------------|-----------------------|


E|---------------------|-----------------0---|-2----3----5---10---9--9--|-9---------7-----|
B|-3-----2----3----2---|-0-----2----3--------|--------------------------|------10---------|
G|---------------------|---------------------|--------------------------|-----------------|
D|---------------------|---------------------|--------------------------|-----------------|
A|-------0-------------|-2-------------------|-----------0--------------|-----------------|
E|-3-------------------|-------0-------------|-3------------------------|-7---------------|


E|-7-----5----3----2---|-3----2----0-------------|---------------------|--------|---------------------|
B|---------------------|---------------3-----3---|------------0----2---|-0------|-3-----2----3----2---|
G|---------------------|-------------------------|-0-----2-------------|--------|---------------------|
D|---------------------|-------------------------|---------------------|--------|---------------------|
A|-------0-------------|-2-----------------------|-------0-------------|-2------|-------0-------------|
E|-3-------------------|---------------0---------|-3-------------------|--------|-3-------------------|


E|-----------------0---|-2----3----5---10---9--9--|-9---------7-----7--|-7-----5----3----2---|
B|-0-----2----3--------|--------------------------|------10------------|---------------------|
G|---------------------|--------------------------|--------------------|---------------------|
D|---------------------|--------------------------|--------------------|---------------------|
A|-2-------------------|-----------0--------------|--------------------|-------0-------------|
E|-------0-------------|-3------------------------|-7------------------|-3-------------------|


E|-3----2----0-------------|---------------------|-------------|---------2---------------2----|
B|---------------3-----3---|------------0----2---|-0------0----|-0---------------2------------|
G|-------------------------|-0-----2-------------|-------------|-------------0----------------|
D|-------------------------|---------------------|-------------|-----0---------------2--------|
A|-2-----------------------|-------0-------------|-2-----------|-----------------0------------|
E|---------------0---------|-3-------------------|-------------|-3----------------------------|


E|---------0---2---0-------5----|-7-------9---10--9---10-9--7-------|---------------------------------|
B|-3----------------------------|-----7-------------------------10--|-7---10--5---7---3-------3---2---|
G|---------------------2--------|-----------------------------------|---------------------2-----------|
D|-----4------------------------|-----------------------------------|-0---------------0---------------|
A|-2---------------0------------|-----------------0-----------------|---------------------------------|
E|------------------------------|-3---------------------------------|---------------------------------|


E|---------2---------------2----|---------0---2---0----5----|-7-------9---10--9---10-9--7-------|
B|-0---------------2------------|-3-------------------------|-----7-------------------------10--|
G|-------------0----------------|---------------------------|-----------------------------------|
D|-----0---------------2--------|-----4---------------------|-----------------------------------|
A|-----------------0------------|-2-------------------------|-----------------0-----------------|
E|-3----------------------------|-----------------0---------|-3---------------------------------|


E|-7---------------7----7----|---------2---------------2----|---------0---2---0-------5----|
B|-------------7--------7----|-0---------------2------------|-3----------------------------|
G|---------7------------7----|-------------0----------------|---------------------2--------|
D|-----9----------------9----|-----0---------------2--------|-----4------------------------|
A|----------------------9----|-----------------0------------|-2---------------0------------|
E|-7--------------------7----|-3----------------------------|------------------------------|


E|-7-------9---10--9---10-9--7-------|---------------------------------|---------2---------------2----|
B|-----7-------------------------10--|-7---10--5---7---3-------3---2---|-0---------------2------------|
G|-----------------------------------|---------------------2-----------|-------------0----------------|
D|-----------------------------------|-0---------------0---------------|-----0---------------2--------|
A|-----------------0-----------------|---------------------------------|-----------------0------------|
E|-3---------------------------------|---------------------------------|-3----------------------------|


E|---------0---2---0----5----|-7-------9---10--9---10-9--7-------|-7---------------7-----|
B|-3-------------------------|-----7-------------------------10--|-------------7---------|
G|---------------------------|-----------------------------------|---------7-------------|
D|-----4---------------------|-----------------------------------|-----9-----------------|
A|-2-------------------------|-----------------0-----------------|-----------------------|
E|-----------------0---------|-3---------------------------------|-7---------------------|


E|-2-----------2-----------2-----------2-----------|-3-----------3-----------3-----------3-----------|
B|-----3-----------3-----------3-----------3-------|-----5-----------5-----------5-----------5-------|
G|---------4-----------4-----------4-----------4---|---------5-----------5-----------5-----------5---|
D|-------------------------------------------------|-------------------------------------------------|
A|-2-----------------------------------------------|-3-----------------------------------------------|
E|-------------------------------------------------|-------------------------------------------------|


E|-5-----------5-----------5-----------5-----------|-3-----------3-----------5-----------3-----------|
B|-----7-----------7-----------7-----------7-------|-----5-----------5-----------7-----------5-------|
G|---------7-----------7-----------7-----------7---|---------5-----------5-----------7-----------5---|
D|-------------------------------------------------|-------------------------------------------------|
A|-5-----------------------------------------------|-3-----------------------5-----------3-----------|
E|-------------------------------------------------|-------------------------------------------------|


E|-2---------------1-----------4---|-4---4-------------------3-------|-2---------------1-----------4---|
B|---------3---------------2-------|---------6-------5---------------|---------3---------------2-------|
G|---------------------------------|---------------------------------|---------------------------------|
D|---------------------------------|---------------------------------|---------------------------------|
A|-2---2---2---2---1---1---1---4---|-4---4---4---4---3---3---3---3---|-2---2---2---2---1---1---1---4---|
E|---------------------------------|---------------------------------|---------------------------------|


E|-4---4-----------------|-2---------------1-----------4---|-4---4-------------------3-------|
B|---------6-------5-----|---------3---------------2-------|---------6-------5---------------|
G|-----------------------|---------------------------------|---------------------------------|
D|-----------------------|---------------------------------|---------------------------------|
A|-4---4---4---4---3-----|-2---2---2---2---1---1---1---4---|-4---4---4---4---3---3---3---3---|
E|-----------------------|---------------------------------|---------------------------------|


E|-2---------------1-----------4---|-4---4-----------------|-4---------------3-----------6---|
B|---------3---------------2-------|---------6-------5-----|---------5---------------4-------|
G|---------------------------------|-----------------------|---------------------------------|
D|---------------------------------|-----------------------|---------------------------------|
A|-2---2---2---2---1---1---1---4---|-4---4---4---4---3-----|-4---4---4---4---3---3---3---6---|
E|---------------------------------|-----------------------|---------------------------------|


E|-6---6-------------------5-------|-4---------------3-----------6---|-6---6-----------------|
B|---------8-------7---------------|---------5---------------4-------|---------8-------7-----|
G|---------------------------------|---------------------------------|-----------------------|
D|---------------------------------|---------------------------------|-----------------------|
A|-6---6---6---6---5---5---5---5---|-4---4---4---4---3---3---3---6---|-6---6---6---6---5-----|
E|---------------------------------|---------------------------------|-----------------------|


E|-2---------------1-----------4---|-4---4-------------------3-------|-2---------------1-----------4---|
B|---------3---------------2-------|---------6-------5---------------|---------3---------------2-------|
G|---------------------------------|---------------------------------|---------------------------------|
D|---------------------------------|---------------------------------|---------------------------------|
A|-2---2---2---2---1---1---1---4---|-4---4---4---4---3---3---3---3---|-2---2---2---2---1---1---1---4---|
E|---------------------------------|---------------------------------|---------------------------------|


E|-4---4-----------------|---------2---------------2-------|---------0---2---0-------5----|
B|---------6-------5-----|-0---------------2-----------3---|-3---3------------------------|
G|-----------------------|---------------------------------|------------------------------|
D|-----------------------|-----0-------0-------2-----------|------------------------------|
A|-4---4---4---4---3-----|-----------------0-----------2---|-----2-----------0------------|
E|-----------------------|-3-------------------------------|------------------------------|


E|-7-------9---10--9---10-9--7-------|---------------------------|---------2---------------2-------|
B|-----7-------------------------10--|-7---10--5---7---3----3----|-0---------------2-----------3---|
G|-----------------------------------|---------------------------|---------------------------------|
D|-----------------------------------|-0---------------0---------|-----0-------0-------2-----------|
A|-----------------0-----------------|---------------------------|-----------------0-----------2---|
E|-3---------------------------------|---------------------------|-3-------------------------------|


E|---------0---2---0-------4----|-7-------9---10--9---10-9--7-------|-7------|---------2---------------2-------|
B|-3---3------------------------|-----7-------------------------10--|-7------|-0---------------2-----------3---|
G|------------------------------|-----------------------------------|-7------|---------------------------------|
D|------------------------------|-----------------------------------|--------|-----0-------0-------2-----------|
A|-----2------------------------|-----------------0-----------------|--------|-----------------0-----------2---|
E|-----------------0------------|-3---------------------------------|-7------|-3-------------------------------|


E|---------0---2---0-------5----|-7-------9---10--9---10-9--7-------|---------------------------------|
B|-3---3---------------2--------|-----7-------------------------10--|-7---10--5---7---3-------3---2---|
G|------------------------------|-----------------------------------|---------------------2-----------|
D|------------------------------|-----------------------------------|-0---------------0---------------|
A|-----2-----------0------------|-----------------0-----------------|---------------------------------|
E|------------------------------|-3---------------------------------|---------------------------------|


E|---------2---------------2-------|---------0---2---0-------4----|-7-------9---10--9---10-9--7-------|
B|-0---------------2-----------3---|-3---3------------------------|-----7-------------------------10--|
G|---------------------------------|------------------------------|-----------------------------------|
D|-----0-------0-------2-----------|------------------------------|-----------------------------------|
A|-----------------0-----------2---|-----2------------------------|-----------------0-----------------|
E|-3-------------------------------|-----------------0------------|-3---------------------------------|


E|-----7-------7-------7--------|-7------|
B|-----7-------7-------7--------|-7------|
G|------------------------------|-7------|
D|------------------------------|-9------|
A|-------------------------9----|-9------|
E|-7-------9-------10-----------|-7------|


        
Comments

@Shidouuu (May 02, 2020 at 10:09 PM)

Amazing