Gametabs
Home
Tabs
Random

Shanghai Teahouse ~ Chinese Tea

Average rating: 3.000

1 ratings

Composer:

Tabber:

Style:

Instrument:

Created: December 11, 2014 at 12:00 AM

            Intro and Main Riff
e------------------------------------------------------------------
B-----------------10-9---------------------------------------------
G----------11-9---------9-----9--11--------------------------------
D--------------------------11--------------------------------------
A--------9---------------------------------------------------------
E------------------------------------------------------------------

e------------------------------------------------------------------
B-------------------9----------------------------------------------
G----------11-10-11------------------------------------------------
D----------------------11------------------------------------------
A--------9---------------------------------------------------------
E------------------------------------------------------------------

e--------------------------------9---------------------------------
B------------------9-10-9-10--12------9h10p9-----------------------
G----------11-9-11-----------------11--------9----9----9--11-------
D----------------------------------------------11---11-------------
A--------9---------------------------------------------------------
E------------------------------------------------------------------

Bridge 
e--------------9---9----------------------------------9---------------------
B---------9-10---9-----------------9-10----9-10-9--12---10------------------
G-----11--------------11--------11------------------------------------------
D---------------------------------------11----------------------------------
A---------------------------------------------------------------------------
E---------------------------------------------------------------------------

e--------------9---9------------------------------------------12------------
B---------9-10---9-----------------9-10----9-10-9----9-10--12----12-9-10----
G-----11--------------11--------11---------------------------------------11-
D---------------------------------------11---------9------------------------
A---------------------------------------------------------------------------
E---------------------------------------------------------------------------

Flute "Solo"
e---16--17-----17-16-14----------------------------------12------------------------------------------
B-----------14----------17-15-14-17--12-14---------12-14----14-12-14-11h12---------------------------
G------------------------------------------14---14-------------------------14-11-14------------------
D------------------------------------------------------------------------------------16p14h16p14h16--
A----------------------------------------------------------------------------------------------------
E----------------------------------------------------------------------------------------------------


e-------17-----17-16-14----------------------------------12----------12-14--17-14--14----------------
B-----------14----------17-15-14-17--12-14---------12-14----14-12-14---------------------------------
G------------------------------------------14---14---------------------------------------------------
D----------------------------------------------------------------------------------------------------
A----------------------------------------------------------------------------------------------------
E----------------------------------------------------------------------------------------------------

Flute "Solo" tuned down
e---4--5----5-4-2-----------------------0------------------------------------------------------------
B---------2-------5-3-2-5-0-2-------0-2---2-0-2------------------------------------------------------
G-----------------------------2---2-------------3h4-2---2--------------------------------------------
D-----------------------------------------------------4----4p2h4p2h4---------------------------------
A----------------------------------------------------------------------------------------------------
E----------------------------------------------------------------------------------------------------

e------5----5-4-2-----------------------0-------0-2-5-2--2-------------------------------------------
B---------2-------5-3-2-5-0-2-------0-2---2-0-2------------------------------------------------------
G-----------------------------2---2------------------------------------------------------------------
D----------------------------------------------------------------------------------------------------
A----------------------------------------------------------------------------------------------------
E----------------------------------------------------------------------------------------------------

        
Comments

No comments yet