Gametabs
Home
Tabs
Random

Vanishing Dreams (Intro)

Average rating: 5.000

4 ratings

Composer:

Tabber:

Style:

Instrument:

Created: January 17, 2014 at 12:00 AM

            Piste 1
     E  E  E  E  E  E  E  E     E  E  E  E  E  E  E  E   
E||--------------------------|--------------------------|
B||-----------1-----1--------|-----------1-----1--------|
G||--------4-----4-----0-----|--------4-----4-----0-----|
D||-----2--------------------|-----2--------------------|
A||--0--------------------0--|--------------------------|
E||--------------------------|--3--------------------3--|


  E  E  E  E  E  E  E  E     E  E  E  E  E   E   E  E   4x
--------------------------|-----------------------------||
-----------3--1--0--------|-----------1----------0--1---||
--------2-----------2-----|--------2--------(0)--------*||
-----0-----------------0--|-----3----------------------*||
--------------------------|-----------------------------||
--2-----------------------|--1-----------3---L---L--L---||
        
Comments

@Ennea (January 18, 2014 at 10:58 AM)

We need kabukibear to make this into a 5 minute track.


@Bessem (February 12, 2014 at 12:46 PM)

E  E  E  E  E  E  E  E     E  E  E  E  E  E  E  E
E||--------------------------|--------------------------|
B||-----------1-----1--------|-----------1-----1--------|
G||--------4-----4-----0-----|--------4-----4------0----|
D||-----2--------------------|-----2--------------------|
A||--0--------------------0--|--------------------------|
E||--------------------------|--3--------------------3--|

E  E  E  E  E  E  E  E     E  E  E  E  E   E   E  E   4x
--------------------------|-----------------------------||
-----------3--1--0--------|-----------1----------0--1---||
--------2-----------2-----|--------2--------(0)--------*||
-----0-----------------0--|-----3----------------------*||
--------------------------|-----------------------------||
--2-----------------------|--1-----------3---L---L--L---||