Gametabs
Home
Tabs
Random

A Tiny Tiny Clever Commander

Average rating: 5.000

1 ratings

Composer:

Tabber:

Style:

Instrument:

Created: January 05, 2010 at 12:00 AM

                  E   E   E   S   S  E   E      E   E   E   S   S  E   E      E   E   E   S   S  E   E   
E||----------21-------------21--|----------21-------------21--|----------21-------------21--|
B||------19-------------19------|------19-------------19------|------19-------------19------|
G||--20----------19s-20---------|--20----------19s-20---------|--20----------19s-20---------|
D||-----------------------------|-----------------------------|-----------------------------|
A||-----------------------------|-----------------------------|-----------------------------|
E||-----------------------------|-----------------------------|-----------------------------|


   E   E   E   S   S  E   E      E   E   E   S   S  E   E      E   E   E   S   S  E   E   
----------21-------------21--|----------21-------------21--|----------21-------------21--|
------19-------------19------|------19-------------19------|------19-------------19------|
--20----------19s-20---------|--20----------19s-20---------|--20----------19s-20---------|
-----------------------------|-----------------------------|-----------------------------|
-----------------------------|-----------------------------|-----------------------------|
-----------------------------|-----------------------------|-----------------------------|


   E   E   E   S   S  E   E      E   E   E   S   S  E   E      E   E   E   S   S  E   E   
----------17-------------17--|----------17-------------17--|----------18-------------18--|
--18--19-------------19------|--18--19-------------19------|--18--19-------------19------|
--------------19s-20---------|--------------19s-20---------|--------------19s-20---------|
-----------------------------|-----------------------------|-----------------------------|
-----------------------------|-----------------------------|-----------------------------|
-----------------------------|-----------------------------|-----------------------------|


   E   E   E   S   S  E   E      E   E   E   S   S  E   E      E   E   E   S   S  E   E   
----------18-------------18--|----------18-------------18--|----------18-------------18--|
--18--19-------------19------|--18--19-------------19------|--18--19-------------19------|
--------------19s-20---------|--------------19s-20---------|--------------19s-20---------|
-----------------------------|-----------------------------|-----------------------------|
-----------------------------|-----------------------------|-----------------------------|
-----------------------------|-----------------------------|-----------------------------|


   E   E   H           H.                 E  E   E   E   E  E      S   S  E   E   S S  S S  S S  
----------18--------|--L------------||--------------16--18-----|--15s-16-18--16-----------------|
--18--19------------|---------------||---16-----16-------------|-----------------19---18--------|
--------------------|---------------||*------------------------|---------------------------18---|
--------------------|---------------||*------------------------|--------------------------------|
--------------------|---------------||-------------------------|--------------------------------|
--------------------|---------------||-------------------------|--------------------------------|


   E  E   E   S   S  E  E      S   E.   Q     S S  S S     E  E   E   E   E   E   
-------------16h-17-18-----|--20s-21-------------------|---------------------18--|
--16-----16----------------|-----------21----19---18---|--16-----16--18--20------|
---------------------------|---------------------------|-------------------------|
---------------------------|---------------------------|-------------------------|
---------------------------|---------------------------|-------------------------|
---------------------------|---------------------------|-------------------------|


   Q     Q.      E      Q     E   S  S   Q        H.               E  E   E   E   E  E   
--17----------------|-------------------------|----------------|------------------------|
--------20------18--|--20---------------------|--20------------|------------------------|
--------------------|--------19--19-15h-17----|----------------|-------------19--20-----|
--------------------|-------------------------|----------------|--17-----17-------------|
--------------------|-------------------------|----------------|------------------------|
--------------------|-------------------------|----------------|------------------------|


   S   E.   Q.      E      E  E   E   E   E  E      S   E.   Q.      E      E   E   E   E   E   E   
-----------------------|------------------------|-----------------------|--------------14----------|
-----------------------|------------------------|--17s-18---15----------|------14--16------18--14--|
--18s-19---15----------|-------------19--20-----|-------------------15--|--16----------------------|
-------------------15--|--17-----17-------------|-----------------------|--------------------------|
-----------------------|------------------------|-----------------------|--------------------------|
-----------------------|------------------------|-----------------------|--------------------------|


   E   E   E   S  S  S  S  S  S     E   E   E   S   S  E   E      E   E   E   E   E   E   
--------------------------------|----------21-----------------|--16--18--21----------21--|
--------------------------------|--18--19------15s-16-18--19--|--------------18--19------|
-----------------15-18-15-------|-----------------------------|--------------------------|
--18--16--15--18----------18-16-|-----------------------------|--------------------------|
--------------------------------|-----------------------------|--------------------------|
--------------------------------|-----------------------------|--------------------------|


   E   E   E   S   S  E   E      E   E   E   S   S  E   E      E   E   E   S   S  E   E   
----------21-------------21--|----------21-------------21--|----------21-------------21--|
--18--19------15s-16-19------|--18--19------15s-16-19------|--18--19------15s-16-19------|
-----------------------------|-----------------------------|-----------------------------|
-----------------------------|-----------------------------|-----------------------------|
-----------------------------|-----------------------------|-----------------------------|
-----------------------------|-----------------------------|-----------------------------|


   E   E   E   S   S  E   E      E   E   E   S   S  E   E      E   E   E   S   S  E   E   
----------21-------------21--|----------21-------------21--|----------21-------------21--|
--18--19------15s-16-19------|--18--19------15s-16-19------|--18--19------15s-16-19------|
-----------------------------|-----------------------------|-----------------------------|
-----------------------------|-----------------------------|-----------------------------|
-----------------------------|-----------------------------|-----------------------------|
-----------------------------|-----------------------------|-----------------------------|


   E   E   E   S   S  E   E      E   E   E   S   S  E   E      E   E   S   S  E   E   E   
----------17-------------17--|----------17-------------17--|----------17s-18---------18--|
--18--19------15s-16-19------|--18--19------15s-16-19------|--18--19---------15--19------|
-----------------------------|-----------------------------|-----------------------------|
-----------------------------|-----------------------------|-----------------------------|
-----------------------------|-----------------------------|-----------------------------|
-----------------------------|-----------------------------|-----------------------------|


   S   S  E   E   E   E   E      E   E   S   S  E   E   E      S   S  E   E   E   E   E   
-------------18----------18--|----------17s-18---------18--|-------------18----------18--|
--17s-18-19------15--19------|--18--19---------15--19------|--17s-18-19------15--19------|
-----------------------------|-----------------------------|-----------------------------|
-----------------------------|-----------------------------|-----------------------------|
-----------------------------|-----------------------------|-----------------------------|
-----------------------------|-----------------------------|-----------------------------|


   S   S  E   H                                                                                 
-------------18--------|-----|-----|-----|-----|-----|-----|-----|-----|-----|-----|-----|-----|
--17s-18-19------------|-----|-----|-----|-----|-----|-----|-----|-----|-----|-----|-----|-----|
-----------------------|-----|-----|-----|-----|-----|-----|-----|-----|-----|-----|-----|-----|
-----------------------|-----|-----|-----|-----|-----|-----|-----|-----|-----|-----|-----|-----|
-----------------------|-----|-----|-----|-----|-----|-----|-----|-----|-----|-----|-----|-----|
-----------------------|-----|-----|-----|-----|-----|-----|-----|-----|-----|-----|-----|-----|


                           E  E   E   E   E  E      S   S  E   E   S S  S S  S S  
-----|-----|-----|-----|-------------16--18-----|--15s-16-18--16-----------------|
-----|-----|-----|-----|--16-----16-------------|-----------------19---18--------|
-----|-----|-----|-----|------------------------|---------------------------18---|
-----|-----|-----|-----|------------------------|--------------------------------|
-----|-----|-----|-----|------------------------|--------------------------------|
-----|-----|-----|-----|------------------------|--------------------------------|


   E  E   E   S   S  E  E      S   E.   Q     S S  S S     E  E   E   E   E   E   
-------------16h-17-18-----|--20s-21-------------------|---------------------18--|
--16-----16----------------|-----------21----19---18---|--16-----16--18--20------|
---------------------------|---------------------------|-------------------------|
---------------------------|---------------------------|-------------------------|
---------------------------|---------------------------|-------------------------|
---------------------------|---------------------------|-------------------------|


   Q     Q.      E      Q     E   S  S   Q        H.               E  E   E   E   E  E   
--17----------------|-------------------------|----------------|------------------------|
--------20------18--|--20---------------------|--20------------|------------------------|
--------------------|--------19--19-15h-17----|----------------|-------------19--20-----|
--------------------|-------------------------|----------------|--17-----17-------------|
--------------------|-------------------------|----------------|------------------------|
--------------------|-------------------------|----------------|------------------------|


   S   E.   Q.      E      E  E   E   E   E  E      S   E.   Q.      E      E   E   E   E   E   E   
-----------------------|------------------------|-----------------------|--------------14----------|
-----------------------|------------------------|--17s-18---15----------|------14--16------18--14--|
--18s-19---15----------|-------------19--20-----|-------------------15--|--16----------------------|
-------------------15--|--17-----17-------------|-----------------------|--------------------------|
-----------------------|------------------------|-----------------------|--------------------------|
-----------------------|------------------------|-----------------------|--------------------------|


   E   E   E   S  S  S  S  S  S     E   E   E   S   S  E   E      E   E   E   E   E   E   
--------------------------------|----------21-----------------|--16--18--21----------21--|
--------------------------------|--18--19------15s-16-18--19--|--------------18--19------|
-----------------15-18-15-------|-----------------------------|--------------------------|
--18--16--15--18----------18-16-|-----------------------------|--------------------------|
--------------------------------|-----------------------------|--------------------------|
--------------------------------|-----------------------------|--------------------------|


   E   E   E   S   S  E   E      E   E   E   S   S  E   E      E   E   E   S   S  E   E   
----------21-------------21--|----------21-------------21--|----------21-------------21--|
--18--19------15s-16-19------|--18--19------15s-16-19------|--18--19------15s-16-19------|
-----------------------------|-----------------------------|-----------------------------|
-----------------------------|-----------------------------|-----------------------------|
-----------------------------|-----------------------------|-----------------------------|
-----------------------------|-----------------------------|-----------------------------|


   E   E   E   S   S  E   E      E   E   E   S   S  E   E      E   E   E   S   S  E   E   
----------21-------------21--|----------21-------------21--|----------21-------------21--|
--18--19------15s-16-19------|--18--19------15s-16-19------|--18--19------15s-16-19------|
-----------------------------|-----------------------------|-----------------------------|
-----------------------------|-----------------------------|-----------------------------|
-----------------------------|-----------------------------|-----------------------------|
-----------------------------|-----------------------------|-----------------------------|


   E   E   E   S   S  E   E      E   E   E   S   S  E   E      E   E   S   S  E   E   E   
----------17-------------17--|----------17-------------17--|----------17s-18---------18--|
--18--19------15s-16-19------|--18--19------15s-16-19------|--18--19---------15--19------|
-----------------------------|-----------------------------|-----------------------------|
-----------------------------|-----------------------------|-----------------------------|
-----------------------------|-----------------------------|-----------------------------|
-----------------------------|-----------------------------|-----------------------------|


   S   S  E   E   E   E   E      E   E   S   S  E   E   E      S   S  E   E   E   E   E   
-------------18----------18--|----------17s-18---------18--|-------------18----------18--|
--17s-18-19------15--19------|--18--19---------15--19------|--17s-18-19------15--19------|
-----------------------------|-----------------------------|-----------------------------|
-----------------------------|-----------------------------|-----------------------------|
-----------------------------|-----------------------------|-----------------------------|
-----------------------------|-----------------------------|-----------------------------|


   S   S  E   H           H.              
-------------18--------|--L-------------||
--17s-18-19------------|----------------||
-----------------------|---------------*||
-----------------------|---------------*||
-----------------------|----------------||
-----------------------|----------------||




Duration Legend
---------------
W - whole
H - half
Q - quarter
E - 8th
S - 16th
T - 32nd
X - 64th
. - note dotted
|-n-|  - n-tuplets


Tablature Legend
----------------
L - tied note
h - hammer on
p - pull off
s - legato slide

      E   E   E   S   S  E   E      E   E   E   S   S  E   E      E   E   E   S   S  E   E   
E||-----------------------------|-----------------------------|-----------------------------|
B||----------14-------------14--|----------14-------------14--|----------14-------------14--|
G||------11-------------11------|------11-------------11------|------11-------------11------|
D||--13----------12s-13---------|--13----------12s-13---------|--13----------12s-13---------|
A||-----------------------------|-----------------------------|-----------------------------|
E||-----------------------------|-----------------------------|-----------------------------|


   E   E   E   S   S  E   E      E   E   E   S   S  E   E      E   E   E   S   S  E   E   
-----------------------------|-----------------------------|-----------------------------|
----------14-------------14--|----------14-------------14--|----------14-------------14--|
------11-------------11------|------11-------------11------|------11-------------11------|
--13----------12s-13---------|--13----------12s-13---------|--13----------12s-13---------|
-----------------------------|-----------------------------|-----------------------------|
-----------------------------|-----------------------------|-----------------------------|


   E   E   E   S   S  E   E      E   E   E   S   S  E   E      E   E   E   S   S  E   E   
-----------------------------|-----------------------------|-----------------------------|
----------10-------------10--|----------10-------------10--|----------11-------------11--|
------11-------------11------|------11-------------11------|------11-------------11------|
--15----------12s-13---------|--15----------12s-13---------|--15----------12s-13---------|
-----------------------------|-----------------------------|-----------------------------|
-----------------------------|-----------------------------|-----------------------------|


   E   E   E   S   S  E   E      E   E   E   S   S  E   E      E   E   E   S   S  E   E   
-----------------------------|-----------------------------|-----------------------------|
----------11-------------11--|----------11-------------11--|----------11-------------11--|
------11-------------11------|------11-------------11------|------11-------------11------|
--15----------12s-13---------|--15----------12s-13---------|--15----------12s-13---------|
-----------------------------|-----------------------------|-----------------------------|
-----------------------------|-----------------------------|-----------------------------|


   E   E   H           H.                                                                          
--------------------|---------------||------------|-----------|-----------|-----------|-----------|
----------11--------|--L------------||------------|-----------|-----------|-----------|-----------|
------11------------|---------------||*-----------|-----------|-----------|-----------|-----------|
--15----------------|---------------||*-----------|-----------|-----------|-----------|-----------|
--------------------|---------------||------------|-----------|-----------|-----------|-----------|
--------------------|---------------||------------|-----------|-----------|-----------|-----------|


-----------|-----------|-----------|-----------|-----------|-----------|-----------|-----------|
-----------|-----------|-----------|-----------|-----------|-----------|-----------|-----------|
-----------|-----------|-----------|-----------|-----------|-----------|-----------|-----------|
-----------|-----------|-----------|-----------|-----------|-----------|-----------|-----------|
-----------|-----------|-----------|-----------|-----------|-----------|-----------|-----------|
-----------|-----------|-----------|-----------|-----------|-----------|-----------|-----------|


-----------|-----------|-----------|-----------|-----------|-----------|-----------|-----------|
-----------|-----------|-----------|-----------|-----------|-----------|-----------|-----------|
-----------|-----------|-----------|-----------|-----------|-----------|-----------|-----------|
-----------|-----------|-----------|-----------|-----------|-----------|-----------|-----------|
-----------|-----------|-----------|-----------|-----------|-----------|-----------|-----------|
-----------|-----------|-----------|-----------|-----------|-----------|-----------|-----------|


-----------|-----------|-----------|-----------|-----------|-----------|-----------|
-----------|-----------|-----------|-----------|-----------|-----------|-----------|
-----------|-----------|-----------|-----------|-----------|-----------|-----------|
-----------|-----------|-----------|-----------|-----------|-----------|-----------|
-----------|-----------|-----------|-----------|-----------|-----------|-----------|
-----------|-----------|-----------|-----------|-----------|-----------|-----------|


               |--3--|                                                       
  H        E   S  S  S     Q     E   E   Q        S   S  E   E   E   E   E   
-----------------------|------------16--18----|--15s-16-18--16--------------|
--------------19-18-17-|--16----16------------|-----------------19--18------|
-----------------------|----------------------|-------------------------18--|
-----------------------|----------------------|-----------------------------|
-----------------------|----------------------|-----------------------------|
-----------------------|----------------------|-----------------------------|


   Q     E   S  S  Q        S   E.   Q     E   E      Q     E   E   E   E      Q     Q.      E   
------------16-17-18----|--20s-21---16------------|--------------------18--|--17----------------|
--16----16--------------|-----------------19--18--|--16----16--18--20------|--------20------18--|
------------------------|-------------------------|------------------------|--------------------|
------------------------|-------------------------|------------------------|--------------------|
------------------------|-------------------------|------------------------|--------------------|
------------------------|-------------------------|------------------------|--------------------|


   S   E.   E   S  S   Q        H.               E  E   E   E   E  E      S   E.   Q.      E   
----------------------------|----------------|------------------------|-----------------------|
--19s-20--------------------|--20------------|------------------------|-----------------------|
-----------19--19-15h-17----|----------------|-------------19--20-----|--18s-19---15----------|
----------------------------|----------------|--17-----17-------------|-------------------15--|
----------------------------|----------------|------------------------|-----------------------|
----------------------------|----------------|------------------------|-----------------------|


   E  E   E   E   E  E      S   E.   Q.      E      E   E   E   E   E   E   
------------------------|-----------------------|--------------14----------|
------------------------|--17s-18---15----------|------14--16------18--14--|
-------------19--20-----|-------------------15--|--16----------------------|
--17-----17-------------|-----------------------|--------------------------|
------------------------|-----------------------|--------------------------|
------------------------|-----------------------|--------------------------|


   E   E   E   S  S  S  S  S  S     E   E   E   S   S  E   E      E   E   E   E   E   E         
--------------------------------|----------21-----------------|------18--21----------21--|-----|
--------------------------------|--18--19------15s-16-18--19--|--21----------18--19------|-----|
-----------------15-18-15-------|-----------------------------|--------------------------|-----|
--18--16--15--18----------18-16-|-----------------------------|--------------------------|-----|
--------------------------------|-----------------------------|--------------------------|-----|
--------------------------------|-----------------------------|--------------------------|-----|


-----|-----|-----|-----|-----|-----|-----|-----|-----|-----|-----|-----|-----|-----|-----|-----|
-----|-----|-----|-----|-----|-----|-----|-----|-----|-----|-----|-----|-----|-----|-----|-----|
-----|-----|-----|-----|-----|-----|-----|-----|-----|-----|-----|-----|-----|-----|-----|-----|
-----|-----|-----|-----|-----|-----|-----|-----|-----|-----|-----|-----|-----|-----|-----|-----|
-----|-----|-----|-----|-----|-----|-----|-----|-----|-----|-----|-----|-----|-----|-----|-----|
-----|-----|-----|-----|-----|-----|-----|-----|-----|-----|-----|-----|-----|-----|-----|-----|


-----|-----|-----|-----|-----|-----|-----|-----|-----|-----|-----|-----|------||
-----|-----|-----|-----|-----|-----|-----|-----|-----|-----|-----|-----|------||
-----|-----|-----|-----|-----|-----|-----|-----|-----|-----|-----|-----|-----*||
-----|-----|-----|-----|-----|-----|-----|-----|-----|-----|-----|-----|-----*||
-----|-----|-----|-----|-----|-----|-----|-----|-----|-----|-----|-----|------||
-----|-----|-----|-----|-----|-----|-----|-----|-----|-----|-----|-----|------||



Duration Legend
---------------
W - whole
H - half
Q - quarter
E - 8th
S - 16th
T - 32nd
X - 64th
. - note dotted
|-n-|  - n-tuplets


Tablature Legend
----------------
L - tied note
h - hammer on
p - pull off
s - legato slide


E||-------|-------|-------|-------|-------|-------|-------|-------|-------|-------|-------|-------|
B||-------|-------|-------|-------|-------|-------|-------|-------|-------|-------|-------|-------|
G||-------|-------|-------|-------|-------|-------|-------|-------|-------|-------|-------|-------|
D||-------|-------|-------|-------|-------|-------|-------|-------|-------|-------|-------|-------|
A||-------|-------|-------|-------|-------|-------|-------|-------|-------|-------|-------|-------|
E||-------|-------|-------|-------|-------|-------|-------|-------|-------|-------|-------|-------|


-------|-------||--------|-------|-------|-------|-------|-------|-------|-------|-------|-------|
-------|-------||--------|-------|-------|-------|-------|-------|-------|-------|-------|-------|
-------|-------||*-------|-------|-------|-------|-------|-------|-------|-------|-------|-------|
-------|-------||*-------|-------|-------|-------|-------|-------|-------|-------|-------|-------|
-------|-------||--------|-------|-------|-------|-------|-------|-------|-------|-------|-------|
-------|-------||--------|-------|-------|-------|-------|-------|-------|-------|-------|-------|


-------|-------|-------|-------|-------|-------|-------|-------|-------|-------|-------|-------|
-------|-------|-------|-------|-------|-------|-------|-------|-------|-------|-------|-------|
-------|-------|-------|-------|-------|-------|-------|-------|-------|-------|-------|-------|
-------|-------|-------|-------|-------|-------|-------|-------|-------|-------|-------|-------|
-------|-------|-------|-------|-------|-------|-------|-------|-------|-------|-------|-------|
-------|-------|-------|-------|-------|-------|-------|-------|-------|-------|-------|-------|


-------|-------|-------|-------|-------|-------|-------|-------|-------|-------|-------|-------|
-------|-------|-------|-------|-------|-------|-------|-------|-------|-------|-------|-------|
-------|-------|-------|-------|-------|-------|-------|-------|-------|-------|-------|-------|
-------|-------|-------|-------|-------|-------|-------|-------|-------|-------|-------|-------|
-------|-------|-------|-------|-------|-------|-------|-------|-------|-------|-------|-------|
-------|-------|-------|-------|-------|-------|-------|-------|-------|-------|-------|-------|


                                                                          H        S  S  S  S  
-------|-------|-------|-------|-------|-------|-------|-------|-------|----------------------|
-------|-------|-------|-------|-------|-------|-------|-------|-------|-------------------14-|
-------|-------|-------|-------|-------|-------|-------|-------|-------|----------------------|
-------|-------|-------|-------|-------|-------|-------|-------|-------|-------------13-16----|
-------|-------|-------|-------|-------|-------|-------|-------|-------|----------------------|
-------|-------|-------|-------|-------|-------|-------|-------|-------|----------------------|


   S  S  S  S  S  S  S  S  S  S  S  S     S  S  S  S  S  E.   S  E.      S  S  S  S  Q     S  E.   
--------------------------------------|------------------------------|----------------------------|
--------14-------14-------14-------14-|------------------------------|----------------------------|
--------------------------------------|--------------15---------13---|--15----------15------------|
--15-16----13-16----15-16----13-16----|--13-16-15-16----16---16------|-----13-15-16-------15------|
--------------------------------------|------------------------------|-----------------------16---|
--------------------------------------|------------------------------|----------------------------|


   S  S  S  S  Q     S  S  S  S    Q     H            S  S  S  S  E.   S  S  E.   
--------------------------------|-----------------|------------------------------|
-----------------------------14-|--L--------------|-------------------------13---|
--------------15----------------|-------13--------|--------------13--------------|
-----13-15-16-------13-15-16----|-----------------|-----------13---------13------|
--13----------------------------|-----------------|-----13-15--------------------|
--------------------------------|-----------------|--16---------------16---------|


   Q     S  E.   Q        E   E   E   E   Q        Q.      S  S  S  S  S  S  
----------------------|------------------------|----------------------------|
--13------------13----|--15--------------13----|----------------------------|
--------15------------|------15--14------------|--15------15-14----15-14----|
-----------15---------|--------------17--------|----------------17-------15-|
----------------------|------------------------|----------------------------|
----------------------|------------------------|----------------------------|


   S  S  S  S  S  E   S  S  S  S  S     S  S  E   Q     E   S  S  
------------------------------------|----------------------------|
-----------------16--13-------------|--13-15-----15----13--------|
--------13-15-----------15----13-15-|--------15------------------|
-----13-------13-----------13-------|----------------------13-15-|
--17--------------------------------|----------------------------|
------------------------------------|----------------------------|


   S  S  S  S  S  E   S  S  S  S  S     Q     Q     Q        E   E   E   E.   E   S  
------------------------------------|--------13----------|------14--14--14-------14-|
-----13-15----16-----------15-16----|--15----------16----|-------------------16-----|
------------------------17----------|--------------------|--16----------------------|
--17-------17----17--17----------17-|--------------------|--------------------------|
------------------------------------|--------------------|--------------------------|
------------------------------------|--------------------|--------------------------|


   E   E   E   E   E   E      S  S  S  S  S  S  S  S  S  S  S  S  
--16--14--13--16------13--|--------------------------------------|
--------------------------|--------14-------14-------14-------14-|
------------------13------|--------------------------------------|
--------------------------|--15-16----13-15----15-16----13-15----|
--------------------------|--------------------------------------|
--------------------------|--------------------------------------|


   S  S  S  S  S  S  S  S  S  S  S  S     S  S  S  S  S  S  S  S  S  S  S  S  
--------------------------------------|--------------------------------------|
--------14-------14-------14-------14-|--------14-------14-------14-------14-|
--------------------------------------|--------------------------------------|
--15-16----13-15----15-16----13-15----|--15-16----13-15----15-16----13-15----|
--------------------------------------|--------------------------------------|
--------------------------------------|--------------------------------------|


   S  S  S  S  S  S  S  S  S  S  S  S     S  S  S  S  S  S  S  S  S  S  S  S  
--------------------------------------|--------------------------------------|
--------14-------14-------14-------14-|--------14-------14-------14-------14-|
--------------------------------------|--------------------------------------|
--15-16----13-15----15-16----13-15----|--15-16----13-15----15-16----13-15----|
--------------------------------------|--------------------------------------|
--------------------------------------|--------------------------------------|


   S  S  S  S  S  S  S  S  S  S  S  S     E   E   E   S   S  E   E      E   E   E   S   S  E   E   
--------------------------------------|-----------------------------|-----------------------------|
--------14-------14-------14-------14-|----------14-------------14--|----------14-----------------|
--------------------------------------|-----------------------------|-------------------------16--|
--15-16----13-15----15-16----13-15----|--15--16------12s-13-16------|--15--16------12s-13-16------|
--------------------------------------|-----------------------------|-----------------------------|
--------------------------------------|-----------------------------|-----------------------------|


   E   E   E   S   S  E   E      E   E   E   S   S  E   E      E   E   S   S  E   E   E   
-----------------------------|-----------------------------|-----------------------------|
-----------------------------|-----------------------------|-----------------------------|
----------14-------------14--|----------14-------------14--|----------14s-15---------15--|
--15--16------12s-13-16------|--15--16------12s-13-16------|--15--16---------12--16------|
-----------------------------|-----------------------------|-----------------------------|
-----------------------------|-----------------------------|-----------------------------|


   S   S  E   E   E   E   E      E   E   S   S  E   E   E      S   S  E   E   E   E   E   
-----------------------------|-----------------------------|-----------------------------|
-----------------------------|-----------------------------|-----------------------------|
-------------15----------15--|----------14s-15---------15--|-------------15----------15--|
--14s-15-16------12--16------|--15--16---------12--16------|--14s-15-16------12--16------|
-----------------------------|-----------------------------|-----------------------------|
-----------------------------|-----------------------------|-----------------------------|


   S   S  E   H           H.              
-----------------------|----------------||
-----------------------|----------------||
-------------15--------|--L------------*||
--14s-15-16------------|---------------*||
-----------------------|----------------||
-----------------------|----------------||




Duration Legend
---------------
W - whole
H - half
Q - quarter
E - 8th
S - 16th
T - 32nd
X - 64th
. - note dotted
|-n-|  - n-tuplets


Tablature Legend
----------------
L - tied note
h - hammer on
p - pull off
s - legato slide

                                                                          PM      PM  
     H.              H.              H.              H.              Q    E  Q    E   
E||---------------|---------------|---------------|---------------|------------------|
B||--4------------|---------------|---------------|---------------|------------------|
G||--3------------|---------------|---------------|---------------|----------4----4--|
D||--1------------|--3------------|--4------------|--4------------|--3----3--4----4--|
A||---------------|--3------------|--4------------|--4------------|--3----3--2----2--|
E||---------------|--1------------|--2------------|--2------------|--1----1----------|


       PM      PM                                                                                  
  Q    E  Q    E     H.              H.              H.              H.              H.            
------------------|---------------|---------------|---------------|---------------|---------------|
------------------|---------------|---------------|---------------|---------------|---------------|
--6----6--4----4--|--2------------|--L------------|--3------------|--L------------|--L------------|
--6----6--4----4--|--2------------|--L------------|--3------------|--L------------|--L------------|
--4----4--2----2--|--0------------|--L------------|--1------------|--L------------|--L------------|
------------------|---------------|---------------|---------------|---------------|---------------|


                                                       PM PM PM PM PM PM PM PM PM PM  
  H.                                                E  S  S  S  S  S  S  S  S  S  S   
---------------|---------------|---------------||------------------------------------|
---------------|---------------|---------------||------------------------------------|
--L------------|---------------|---------------||*--8--8--8--8--8--8--8--8--8--8--8--|
--L------------|---------------|---------------||*--8--8--8--8--8--8--8--8--8--8--8--|
--L------------|---------------|---------------||---6--6--6--6--6--6--6--6--6--6--6--|
---------------|---------------|---------------||------------------------------------|


     PM PM PM PM PM PM PM PM PM PM       PM PM PM PM PM PM PM PM PM PM  
  E  S  S  S  S  S  S  S  S  S  S     E  S  S  S  S  S  S  S  S  S  S   
-----------------------------------|-----------------------------------|
-----------------------------------|-----------------------------------|
--6--6--6--6--6--6--6--6--6--6--6--|--4--4--4--4--4--4--4--4--4--4--4--|
--6--6--6--6--6--6--6--6--6--6--6--|--4--4--4--4--4--4--4--4--4--4--4--|
--4--4--4--4--4--4--4--4--4--4--4--|--2--2--2--2--2--2--2--2--2--2--2--|
-----------------------------------|-----------------------------------|


     PM PM PM PM PM PM PM PM PM PM       PM PM PM PM PM PM PM PM PM PM  
  E  S  S  S  S  S  S  S  S  S  S     E  S  S  S  S  S  S  S  S  S  S   
-----------------------------------|-----------------------------------|
-----------------------------------|-----------------------------------|
--6--6--6--6--6--6--6--6--6--6--6--|-----------------------------------|
--6--6--6--6--6--6--6--6--6--6--6--|--6--6--6--6--6--6--6--6--6--6--6--|
--4--4--4--4--4--4--4--4--4--4--4--|--6--6--6--6--6--6--6--6--6--6--6--|
-----------------------------------|--4--4--4--4--4--4--4--4--4--4--4--|


     PM PM PM PM PM PM PM PM PM PM       PM PM PM PM PM PM PM PM PM PM  
  E  S  S  S  S  S  S  S  S  S  S     E  S  S  S  S  S  S  S  S  S  S   
-----------------------------------|-----------------------------------|
-----------------------------------|-----------------------------------|
-----------------------------------|-----------------------------------|
--8--8--8--8--8--8--8--8--8--8--8--|--5--5--5--5--5--5--5--5--5--5--5--|
--8--8--8--8--8--8--8--8--8--8--8--|--5--5--5--5--5--5--5--5--5--5--5--|
--6--6--6--6--6--6--6--6--6--6--6--|--3--3--3--3--3--3--3--3--3--3--3--|


  PM PM PM PM PM PM PM PM PM PM PM PM       PM PM PM PM PM PM PM PM PM PM  
  S  S  S  S  S  S  S  S  S  S  S  S     E  S  S  S  S  S  S  S  S  S  S   
--------------------------------------|-----------------------------------|
--------------------------------------|-----------------------------------|
--------------------------------------|-----------------------------------|
--5--5--5--5--5--5--5--5--5--5--5--5--|--6--6--6--6--6--6--6--6--6--6--6--|
--5--5--5--5--5--5--5--5--5--5--5--5--|--6--6--6--6--6--6--6--6--6--6--6--|
--3--3--3--3--3--3--3--3--3--3--3--3--|--4--4--4--4--4--4--4--4--4--4--4--|


     PM PM PM PM PM PM PM PM PM PM       PM PM PM PM PM PM PM PM PM PM  
  E  S  S  S  S  S  S  S  S  S  S     E  S  S  S  S  S  S  S  S  S  S   
-----------------------------------|-----------------------------------|
-----------------------------------|-----------------------------------|
--3--3--3--3--3--3--3--3--3--3--3--|--5--5--5--5--5--5--5--5--5--5--5--|
--3--3--3--3--3--3--3--3--3--3--3--|--5--5--5--5--5--5--5--5--5--5--5--|
--1--1--1--1--1--1--1--1--1--1--1--|--3--3--3--3--3--3--3--3--3--3--3--|
-----------------------------------|-----------------------------------|


     PM PM PM PM PM PM PM PM PM PM       PM PM PM PM PM PM PM PM PM PM  
  E  S  S  S  S  S  S  S  S  S  S     E  S  S  S  S  S  S  S  S  S  S   
-----------------------------------|-----------------------------------|
-----------------------------------|-----------------------------------|
--3--3--3--3--3--3--3--3--3--3--3--|--4--4--4--4--4--4--4--4--4--4--4--|
--3--3--3--3--3--3--3--3--3--3--3--|--4--4--4--4--4--4--4--4--4--4--4--|
--1--1--1--1--1--1--1--1--1--1--1--|--2--2--2--2--2--2--2--2--2--2--2--|
-----------------------------------|-----------------------------------|


     PM PM PM PM PM PM PM PM PM PM                            PM PM PM PM PM PM                  
  E  S  S  S  S  S  S  S  S  S  S     H.              Q    E  S  S  S  S  S  S     H.            
-----------------------------------|---------------|----------------------------|---------------|
-----------------------------------|--4------------|--4-------4--4--4--4--4--4--|--4------------|
--6--6--6--6--6--6--6--6--6--6--6--|--3------------|--3-------3--3--3--3--3--3--|--3------------|
--6--6--6--6--6--6--6--6--6--6--6--|--1------------|--1-------1--1--1--1--1--1--|--1------------|
--4--4--4--4--4--4--4--4--4--4--4--|---------------|----------------------------|---------------|
-----------------------------------|---------------|----------------------------|---------------|


                                                       PM      PM         PM      PM  
  H.              H.              H.              Q    E  Q    E     Q    E  Q    E   
---------------|---------------|---------------|------------------|------------------|
---------------|---------------|---------------|------------------|------------------|
---------------|---------------|---------------|----------4----4--|--6----6--4----4--|
--3------------|--4------------|--4------------|--3----3--4----4--|--6----6--4----4--|
--3------------|--4------------|--4------------|--3----3--2----2--|--4----4--2----2--|
--1------------|--2------------|--2------------|--1----1----------|------------------|


  H.              H.              H.              H.              H.              H.            
---------------|---------------|---------------|---------------|---------------|---------------|
---------------|---------------|---------------|---------------|---------------|---------------|
--2------------|--L------------|--3------------|--L------------|--L------------|--L------------|
--2------------|--L------------|--3------------|--L------------|--L------------|--L------------|
--0------------|--L------------|--1------------|--L------------|--L------------|--L------------|
---------------|---------------|---------------|---------------|---------------|---------------|


                     PM PM PM PM PM PM PM PM PM PM       PM PM PM PM PM PM PM PM PM PM  
                  E  S  S  S  S  S  S  S  S  S  S     E  S  S  S  S  S  S  S  S  S  S   
---------------|-----------------------------------|-----------------------------------|
---------------|-----------------------------------|-----------------------------------|
---------------|--8--8--8--8--8--8--8--8--8--8--8--|--6--6--6--6--6--6--6--6--6--6--6--|
---------------|--8--8--8--8--8--8--8--8--8--8--8--|--6--6--6--6--6--6--6--6--6--6--6--|
---------------|--6--6--6--6--6--6--6--6--6--6--6--|--4--4--4--4--4--4--4--4--4--4--4--|
---------------|-----------------------------------|-----------------------------------|


     PM PM PM PM PM PM PM PM PM PM       PM PM PM PM PM PM PM PM PM PM  
  E  S  S  S  S  S  S  S  S  S  S     E  S  S  S  S  S  S  S  S  S  S   
-----------------------------------|-----------------------------------|
-----------------------------------|-----------------------------------|
--4--4--4--4--4--4--4--4--4--4--4--|--6--6--6--6--6--6--6--6--6--6--6--|
--4--4--4--4--4--4--4--4--4--4--4--|--6--6--6--6--6--6--6--6--6--6--6--|
--2--2--2--2--2--2--2--2--2--2--2--|--4--4--4--4--4--4--4--4--4--4--4--|
-----------------------------------|-----------------------------------|


     PM PM PM PM PM PM PM PM PM PM       PM PM PM PM PM PM PM PM PM PM  
  E  S  S  S  S  S  S  S  S  S  S     E  S  S  S  S  S  S  S  S  S  S   
-----------------------------------|-----------------------------------|
-----------------------------------|-----------------------------------|
-----------------------------------|-----------------------------------|
--6--6--6--6--6--6--6--6--6--6--6--|--8--8--8--8--8--8--8--8--8--8--8--|
--6--6--6--6--6--6--6--6--6--6--6--|--8--8--8--8--8--8--8--8--8--8--8--|
--4--4--4--4--4--4--4--4--4--4--4--|--6--6--6--6--6--6--6--6--6--6--6--|


     PM PM PM PM PM PM PM PM PM PM    PM PM PM PM PM PM PM PM PM PM PM PM  
  E  S  S  S  S  S  S  S  S  S  S     S  S  S  S  S  S  S  S  S  S  S  S   
-----------------------------------|--------------------------------------|
-----------------------------------|--------------------------------------|
-----------------------------------|--------------------------------------|
--5--5--5--5--5--5--5--5--5--5--5--|--5--5--5--5--5--5--5--5--5--5--5--5--|
--5--5--5--5--5--5--5--5--5--5--5--|--5--5--5--5--5--5--5--5--5--5--5--5--|
--3--3--3--3--3--3--3--3--3--3--3--|--3--3--3--3--3--3--3--3--3--3--3--3--|


     PM PM PM PM PM PM PM PM PM PM       PM PM PM PM PM PM PM PM PM PM  
  E  S  S  S  S  S  S  S  S  S  S     E  S  S  S  S  S  S  S  S  S  S   
-----------------------------------|-----------------------------------|
-----------------------------------|-----------------------------------|
-----------------------------------|--3--3--3--3--3--3--3--3--3--3--3--|
--6--6--6--6--6--6--6--6--6--6--6--|--3--3--3--3--3--3--3--3--3--3--3--|
--6--6--6--6--6--6--6--6--6--6--6--|--1--1--1--1--1--1--1--1--1--1--1--|
--4--4--4--4--4--4--4--4--4--4--4--|-----------------------------------|


     PM PM PM PM PM PM PM PM PM PM       PM PM PM PM PM PM PM PM PM PM  
  E  S  S  S  S  S  S  S  S  S  S     E  S  S  S  S  S  S  S  S  S  S   
-----------------------------------|-----------------------------------|
-----------------------------------|-----------------------------------|
--5--5--5--5--5--5--5--5--5--5--5--|--3--3--3--3--3--3--3--3--3--3--3--|
--5--5--5--5--5--5--5--5--5--5--5--|--3--3--3--3--3--3--3--3--3--3--3--|
--3--3--3--3--3--3--3--3--3--3--3--|--1--1--1--1--1--1--1--1--1--1--1--|
-----------------------------------|-----------------------------------|


     PM PM PM PM PM PM PM PM PM PM       PM PM PM PM PM PM PM PM PM PM                  
  E  S  S  S  S  S  S  S  S  S  S     E  S  S  S  S  S  S  S  S  S  S     H.            
-----------------------------------|-----------------------------------|---------------|
-----------------------------------|-----------------------------------|--4------------|
--4--4--4--4--4--4--4--4--4--4--4--|--6--6--6--6--6--6--6--6--6--6--6--|--3------------|
--4--4--4--4--4--4--4--4--4--4--4--|--6--6--6--6--6--6--6--6--6--6--6--|--1------------|
--2--2--2--2--2--2--2--2--2--2--2--|--4--4--4--4--4--4--4--4--4--4--4--|---------------|
-----------------------------------|-----------------------------------|---------------|


          PM PM PM PM PM PM       PM PM PM PM PM PM PM PM PM PM  
  Q    E  S  S  S  S  S  S     E  S  S  S  S  S  S  S  S  S  S   
----------------------------|-----------------------------------|
--4-------4--4--4--4--4--4--|-----------------------------------|
--3-------3--3--3--3--3--3--|--8--8--8--8--8--8--8--8--8--8--8--|
--1-------1--1--1--1--1--1--|--8--8--8--8--8--8--8--8--8--8--8--|
----------------------------|--6--6--6--6--6--6--6--6--6--6--6--|
----------------------------|-----------------------------------|


     PM PM PM PM PM PM PM PM PM PM       PM PM PM PM PM PM PM PM PM PM  
  E  S  S  S  S  S  S  S  S  S  S     E  S  S  S  S  S  S  S  S  S  S   
-----------------------------------|-----------------------------------|
-----------------------------------|-----------------------------------|
--6--6--6--6--6--6--6--6--6--6--6--|--4--4--4--4--4--4--4--4--4--4--4--|
--6--6--6--6--6--6--6--6--6--6--6--|--4--4--4--4--4--4--4--4--4--4--4--|
--4--4--4--4--4--4--4--4--4--4--4--|--2--2--2--2--2--2--2--2--2--2--2--|
-----------------------------------|-----------------------------------|


     PM PM PM PM PM PM PM PM PM PM       PM PM PM PM PM PM PM PM PM PM  
  E  S  S  S  S  S  S  S  S  S  S     E  S  S  S  S  S  S  S  S  S  S   
-----------------------------------|-----------------------------------|
-----------------------------------|-----------------------------------|
--6--6--6--6--6--6--6--6--6--6--6--|-----------------------------------|
--6--6--6--6--6--6--6--6--6--6--6--|--6--6--6--6--6--6--6--6--6--6--6--|
--4--4--4--4--4--4--4--4--4--4--4--|--6--6--6--6--6--6--6--6--6--6--6--|
-----------------------------------|--4--4--4--4--4--4--4--4--4--4--4--|


     PM PM PM PM PM PM PM PM PM PM       PM PM PM PM PM PM PM PM PM PM  
  E  S  S  S  S  S  S  S  S  S  S     E  S  S  S  S  S  S  S  S  S  S   
-----------------------------------|-----------------------------------|
-----------------------------------|-----------------------------------|
-----------------------------------|-----------------------------------|
--8--8--8--8--8--8--8--8--8--8--8--|--5--5--5--5--5--5--5--5--5--5--5--|
--8--8--8--8--8--8--8--8--8--8--8--|--5--5--5--5--5--5--5--5--5--5--5--|
--6--6--6--6--6--6--6--6--6--6--6--|--3--3--3--3--3--3--3--3--3--3--3--|


  PM PM PM PM PM PM PM PM PM PM PM PM       PM PM PM PM PM PM PM PM PM PM  
  S  S  S  S  S  S  S  S  S  S  S  S     E  S  S  S  S  S  S  S  S  S  S   
--------------------------------------|-----------------------------------|
--------------------------------------|-----------------------------------|
--------------------------------------|-----------------------------------|
--5--5--5--5--5--5--5--5--5--5--5--5--|--6--6--6--6--6--6--6--6--6--6--6--|
--5--5--5--5--5--5--5--5--5--5--5--5--|--6--6--6--6--6--6--6--6--6--6--6--|
--3--3--3--3--3--3--3--3--3--3--3--3--|--4--4--4--4--4--4--4--4--4--4--4--|


     PM PM PM PM PM PM PM PM PM PM       PM PM PM PM PM PM PM PM PM PM  
  E  S  S  S  S  S  S  S  S  S  S     E  S  S  S  S  S  S  S  S  S  S   
-----------------------------------|-----------------------------------|
-----------------------------------|-----------------------------------|
--3--3--3--3--3--3--3--3--3--3--3--|--5--5--5--5--5--5--5--5--5--5--5--|
--3--3--3--3--3--3--3--3--3--3--3--|--5--5--5--5--5--5--5--5--5--5--5--|
--1--1--1--1--1--1--1--1--1--1--1--|--3--3--3--3--3--3--3--3--3--3--3--|
-----------------------------------|-----------------------------------|


     PM PM PM PM PM PM PM PM PM PM       PM PM PM PM PM PM PM PM PM PM  
  E  S  S  S  S  S  S  S  S  S  S     E  S  S  S  S  S  S  S  S  S  S   
-----------------------------------|-----------------------------------|
-----------------------------------|-----------------------------------|
--3--3--3--3--3--3--3--3--3--3--3--|--4--4--4--4--4--4--4--4--4--4--4--|
--3--3--3--3--3--3--3--3--3--3--3--|--4--4--4--4--4--4--4--4--4--4--4--|
--1--1--1--1--1--1--1--1--1--1--1--|--2--2--2--2--2--2--2--2--2--2--2--|
-----------------------------------|-----------------------------------|


     PM PM PM PM PM PM PM PM PM PM                            PM PM PM PM PM PM                  
  E  S  S  S  S  S  S  S  S  S  S     H.              Q    E  S  S  S  S  S  S     H.            
-----------------------------------|---------------|----------------------------|---------------|
-----------------------------------|--4------------|--4-------4--4--4--4--4--4--|--4------------|
--6--6--6--6--6--6--6--6--6--6--6--|--3------------|--3-------3--3--3--3--3--3--|--3------------|
--6--6--6--6--6--6--6--6--6--6--6--|--1------------|--1-------1--1--1--1--1--1--|--1------------|
--4--4--4--4--4--4--4--4--4--4--4--|---------------|----------------------------|---------------|
-----------------------------------|---------------|----------------------------|---------------|


                                                       PM      PM         PM      PM  
  H.              H.              H.              Q    E  Q    E     Q    E  Q    E   
---------------|---------------|---------------|------------------|------------------|
---------------|---------------|---------------|------------------|------------------|
---------------|---------------|---------------|----------4----4--|--6----6--4----4--|
--3------------|--4------------|--4------------|--3----3--4----4--|--6----6--4----4--|
--3------------|--4------------|--4------------|--3----3--2----2--|--4----4--2----2--|
--1------------|--2------------|--2------------|--1----1----------|------------------|


  H.              H.              H.              H.              H.              H.            
---------------|---------------|---------------|---------------|---------------|---------------|
---------------|---------------|---------------|---------------|---------------|---------------|
--2------------|--L------------|--3------------|--L------------|--L------------|--L------------|
--2------------|--L------------|--3--------