Gametabs
Home
Tabs
Random

Lullaby of Deserted Hell (Solo)

Average rating: 5.000

4 ratings

Composer:

Tabber:

Style:

Instrument:

Created: January 21, 2015 at 12:00 AM

            Piste 1
     E  E  E  E  E  E     E  E  E  E  E  E     E  E  E  E  E  E   
E||-----------------0--|--------------------|-----------------0--|
B||--------1-----1-----|--------1--------3--|--------1-----1-----|
G||-----------4--------|-----2--------4-----|-----------4--------|
D||-----2--------------|-----------2--------|-----2--------------|
A||--0-----------------|--0-----------------|--0-----------------|
E||--------------------|--------------------|--------------------|


  E  E  E  E  E  E     E  E  E  E  E  E     E  E  E  E  E  E   
--------------------|-----------------0--|--------------------|
--------1--------3--|--------1-----1-----|--------1--------3--|
-----2--------4-----|-----------4--------|-----2--------4-----|
-----------2--------|-----2--------------|-----------2--------|
--0-----------------|--0-----------------|--0-----------------|
--------------------|--------------------|--------------------|


  E  E  E  E  E  E     E  E  E  E  E  E       Q    Q    E  E   
-----------------0--|--------------------|--------------------|
--------1-----1-----|--------1--------3--|-----------------0--|
-----------4--------|-----2--------4-----|--0g2---------2-----|
-----2--------------|-----------2--------|---------2----------|
--0-----------------|--0-----------------|----0---------0-----|
--------------------|--------------------|--------------------|


  Q    E  E  Q       Q    E  E  Q       Q    E  E  Q       Q    Q    E  E   
-------------0----|----------0-------|------------------|------------------|
--1----1--3-------|--3----------1----|--0-------1--0----|---------------0--|
------------------|------------------|-------0----------|--2---------2-----|
------------------|-------0----------|------------------|-------2----------|
--L----0----------|------------------|------------------|--0---------0-----|
------------------|--1----------1----|--3----------3----|------------------|


  Q    Q    Q       Q    E  E  Q         Q    E  E  Q       E  E  E  E  Q     
-------0----3----|--5-------7--3----|--0g2-------3--2----|--0-----------0----|
--1--------------|------------------|--------------------|-----------0-------|
-----------------|-------0----------|---------2----------|--------1-----L----|
-----------------|------------------|----0----------0----|-----2--------L----|
--L----0---------|--3----------3----|--------------------|-------------------|
-----------------|------------------|--------------------|--0-----------L----|


  Q    Q    Q         Q    E  E  Q         Q    E  E  Q       Q    E  E  Q     
--0----0----3----|--3g5-------7--3----|--0g2-------0-------|--0----------0----|
-----------------|--------------------|---------------3----|------------------|
--L--------------|---------0----------|---------2----------|----------2-------|
--L--------------|--------------------|----0----------0----|-------2----------|
-----------------|----3----------3----|--------------------|--0----------0----|
--L--------------|--------------------|--------------------|------------------|


    Q    Q    Q         Q    Q    E  E       Q    Q    Q       Q    E  E  Q     
-------------------|-----------------0--|-------------------|------------------|
--1g3----1----0----|--------------1-----|--1g3---------3----|--2----------2----|
--------------1----|--0g2---------2-----|--------------0----|----------4-------|
---------2---------|---------3----------|---------0---------|-------2----------|
-------------------|--------------------|-------------------|--0---------------|
----0--------------|----1---------------|----3--------------|------------------|


  H.                Q    Q    E  E     Q    E  E  Q       Q    E  E  Q     
---------------|--------------------|-------------0----|----------0-------|
---------------|-----------------0--|--1----1--3-------|--3----------1----|
--2------------|--0g2---------2-----|------------------|------------------|
---------------|---------2----------|------------------|-------0----------|
--0------------|----0---------0-----|--L----0----------|------------------|
---------------|--------------------|------------------|--1----------1----|


  Q    E  E  Q       Q    Q    E  E     Q    Q    Q         Q    E  E  Q     
------------------|------------------|-------0----3----|--3g5-------7--3----|
--0-------1--0----|---------------0--|--1--------------|--------------------|
-------0----------|--2---------2-----|-----------------|---------0----------|
------------------|-------2----------|-----------------|--------------------|
------------------|--0---------0-----|--L----0---------|----3----------3----|
--3----------3----|------------------|-----------------|--------------------|


    Q    E  E  Q       E  E  E  E  Q       Q    Q    Q         Q    E  E  Q     
--0g2-------3--2----|--0-----------0----|--0----0----3----|--3g5-------7--3----|
--------------------|-----------0-------|-----------------|--------------------|
---------2----------|--------1-----L----|--L--------------|---------0----------|
----0----------0----|-----2--------L----|--L--------------|--------------------|
--------------------|-------------------|-----------------|----3----------3----|
--------------------|--0-----------L----|--L--------------|--------------------|


    Q    E  E  Q       Q    E  E  Q         Q    Q    Q     
--0g2-------0-------|--0----------0----|-------------------|
---------------3----|------------------|--1g3----1----0----|
---------2----------|----------2-------|--------------1----|
----0----------0----|-------2----------|---------2---------|
--------------------|--0----------0----|-------------------|
--------------------|------------------|----0--------------|


    Q    Q    E  E       Q    Q    Q       Q    E  E  Q       H.            
-----------------0--|-------------------|------------------|---------------|
--------------1-----|--1g3---------3----|--2----------2----|---------------|
--0g2---------2-----|--------------0----|----------4-------|--2------------|
---------3----------|---------0---------|-------2----------|---------------|
--------------------|-------------------|--0---------------|--0------------|
----1---------------|----3--------------|------------------|---------------|


                    ^                 ^                 ^             
  H        E  E     H        E  E     Q    Q    Q       H.            
-----------------|--------------0--|-----------------|---------------|
--------------0--|--1--------1-----|--3----1----0----|---------------|
--L--------2-----|--2--------------|--4--------------|--2------------|
-----------------|--3--------------|--5--------------|--2------------|
--L--------------|--3--------------|--5--------------|--3------------|
-----------------|--1--------------|--3--------------|--5------------|


     NH                             
     H.              H.             
------------------|---------------||
------------------|---------------||
--<>14------------|--L------------||
-----L------------|---------------||
-----L------------|---------------||
-----L------------|---------------||
        
Comments

No comments yet