Gametabs
Home
Tabs
Random

Lullaby of Deserted Hell

Average rating: 5.000

1 ratings

Composer:

Tabber:

Style:

Instrument:

Created: December 30, 2014 at 12:00 AM

            change of tone missing because it's would be pretty hard

Piste 1
     Q       E  E  E  E  E  E     E  E  E  E  E  E     E  E  E  E  E  E   
E||-------|-----------------0--|--------------------|-----------------0--|
B||-------|--------1--0--1-----|--------1-----0--3--|--------1--0--1-----|
G||-------|-----2--------------|-----2--------------|-----2--------------|
D||-------|--2-----------------|--2--------2--------|--2-----------------|
A||-------|--------------------|--------------------|--------------------|
E||-------|--------------------|--------------------|--------------------|


  E  E  E  E  E  E     E  E  E  E  E  E     E  E  E  E  E  E   
--------------------|-----------------0--|--------------------|
--------1-----0--3--|--------1--0--1-----|--------1-----0--3--|
-----2--------------|-----2--------------|-----2--------------|
--2--------2--------|--2-----------------|--2--------2--------|
--------------------|--------------------|--------------------|
--------------------|--------------------|--------------------|


  E  E  E  E  E  E     E  E  E  E  E  E     T E.  T E  E  E  E   
-----------------0--|--------------------|----0---L-------------|
--------1--0--1-----|--------1-----0--3--|----------------------|
-----2--------------|-----2--------------|----------2-----2-----|
--2-----------------|--2--------2--------|--2----------2-----2--|
--------------------|--------------------|----------------------|
--------------------|--------------------|----------------------|


  E  E  E  E  E  S. T    Q    E  E  E  E     Q    E  E  E  S. T  
----------------------|-------------------|---------------------|
----------------------|-------------------|---------------------|
--2-----2-----0--2----|-------2-----2-----|--0-------------0----|
-----2-----2----------|--3-------3-----3--|----------0--2-------|
----------------------|-------------------|-------2-------------|
----------------------|-------------------|---------------------|


  Q    E  E  E  E     E  E  E  E  E  S. T    E  E  E  E  E  S. T  
-------------------|----------------------|----------------------|
-------------------|----------------------|-----1-----1-----1----|
-------2-----2-----|--2-----2-----0--2----|--0-----0-----2-------|
--2-------2-----2--|-----2-----0----------|----------------------|
-------------------|----------------------|----------------------|
-------------------|----------------------|----------------------|


  E  E  E  E  E  S. T    E  E  E  E  E  S. T    E  E  E  E  E  S. T  
----------------------|----------------------|-----------------0----|
-----3-----3-----3----|-----0-----0-----0----|-----0-----0----------|
--2-----2-----2-------|----------------------|----------------------|
----------------------|--2-----2-----2-------|--2-----2-----2-------|
----------------------|----------------------|----------------------|
----------------------|----------------------|----------------------|


  E  E  E  E  E  S. T    E  E  E  E  E  S. T    E  E  E  E  E  S. T  
----------------------|----------------------|----------------------|
-----------------1----|-----------------3----|----------------------|
-----0-----0----------|-----2-----2----------|--2-----2-----0--2----|
----------------------|--0-----0-----0-------|-----2-----2----------|
--3-----3-----3-------|----------------------|----------------------|
----------------------|----------------------|----------------------|


  E  E  E  E  E  S. T    E  E  E  E  E  S. T    E  E  E  E  E  S. T  
----------------------|----------------------|----------------------|
-----------------0----|----------------------|----------------------|
-----1-----1----------|----------------------|-----------------0----|
--2-----2-----2-------|-----------------2----|-----0-----0----------|
----------------------|--0--3--0--3--0-------|--2-----2-----2-------|
----------------------|----------------------|----------------------|


  E  E  E  E  E  S. T    E  E  E  E  E  S. T    Q    E  E  E  E   
----------------------|----------------------|-------------------|
----------------------|----------------------|-------------------|
--------2-----0--2----|--------2-----0--2----|-------2-----2-----|
-----2-----2----------|-----2-----2----------|--2-------2-----2--|
--4-------------------|--4-------------------|-------------------|
----------------------|----------------------|-------------------|


  E  E  E  E  E  S. T    Q    E  E  E  E     Q    E  E  E  S. T  
----------------------|-------------------|---------------------|
----------------------|-------------------|---------------------|
--2-----2-----0--2----|-------2-----2-----|--0-------------0----|
-----2-----2----------|--3-------3-----3--|----------0--2-------|
----------------------|-------------------|-------2-------------|
----------------------|-------------------|---------------------|


  Q    E  E  E  E     E  E  E  E  E  S. T    E  E  E  E  E  S. T  
-------------------|----------------------|----------------------|
-------------------|----------------------|-----1-----1-----1----|
-------2-----2-----|--2-----2-----0--2----|--0-----0-----2-------|
--2-------2-----2--|-----2-----0----------|----------------------|
-------------------|----------------------|----------------------|
-------------------|----------------------|----------------------|


  E  E  E  E  E  S. T    E  E  E  E  E  S. T    E  E  E  E  E  S. T  
----------------------|----------------------|-----------------0----|
-----3-----3-----3----|-----0-----0-----0----|-----0-----0----------|
--2-----2-----2-------|----------------------|----------------------|
----------------------|--2-----2-----2-------|--2-----2-----2-------|
----------------------|----------------------|----------------------|
----------------------|----------------------|----------------------|


  E  E  E  E  E  S. T    E  E  E  E  E  S. T    E  E  E  E  E  S. T  
----------------------|----------------------|----------------------|
-----------------1----|-----------------3----|----------------------|
-----0-----0----------|-----2-----2----------|--2-----2-----0--2----|
----------------------|--0-----0-----0-------|-----2-----2----------|
--3-----3-----3-------|----------------------|----------------------|
----------------------|----------------------|----------------------|


  E  E  E  E  E  S. T    E  E  E  E  E  S. T    E  E  E  E  E  S. T  
----------------------|----------------------|----------------------|
-----------------0----|----------------------|----------------------|
-----1-----1----------|----------------------|-----------------0----|
--2-----2-----2-------|-----------------2----|-----0-----0----------|
----------------------|--0--3--0--3--0-------|--2-----2-----2-------|
----------------------|----------------------|----------------------|


  E  E  E  E  E  S. T    E  E  E  E  E  S. T    E  E  E  E  E  E   
----------------------|----------------------|-----------------3--|
----------------------|----------------------|-----1--4--3--4-----|
--------2-----0--2----|--------2-----0--2----|--0-----------------|
-----2-----2----------|-----2-----2----------|--------------------|
--3-------------------|--3-------------------|--------------------|
----------------------|----------------------|--------------------|


  E  E  E  E  E  E     E  E  E  E  E  E     E  E  E  E  E  E   
-----------------1--|-----------------3--|-----------------1--|
-----1--4-----3-----|-----1--4--3--4-----|-----1--4-----3-----|
--0--------0--------|--0-----------------|--0--------0--------|
--------------------|--------------------|--------------------|
--------------------|--------------------|--------------------|
--------------------|--------------------|--------------------|


  E  E  E  E  E  E     E  E  E  E  E  E     E  E  E  E  E  E   
-----------------3--|-----------------1--|-----------------3--|
-----1--4--3--4-----|-----1--4-----3-----|-----1--4--3--4-----|
--0-----------------|--0--------0--------|--0-----------------|
--------------------|--------------------|--------------------|
--------------------|--------------------|--------------------|
--------------------|--------------------|--------------------|


  E  E  E  E  E  E     E  E  E  E  E  E     E  E  E  E  E  E   
-----------------1--|-----------------3--|-----------------1--|
-----1--4-----3-----|-----1--4--3--4-----|-----1--4-----3-----|
--0--------0--------|--0-----------------|--0--------0--------|
--------------------|--------------------|--------------------|
--------------------|--------------------|--------------------|
--------------------|--------------------|--------------------|


  E  E  E  E  E  E     E  E  E  E  E  E     E  E  E  E  E  E   
-----------------3--|-----------------1--|-----------------3--|
-----1--4--3--4-----|-----1--4-----3-----|-----0--4--3--4-----|
--0-----------------|--0--------0--------|--0-----------------|
--------------------|--------------------|--------------------|
--------------------|--------------------|--------------------|
--------------------|--------------------|--------------------|


  E  E  E  E  E  E     E  E  E  E  E  E     E  E  E  E  E  E   
-----------------1--|-----------------3--|-----------------1--|
-----0--4-----3-----|-----0--4--3--4-----|-----0--4-----3-----|
--0--------0--------|--0-----------------|--0--------0--------|
--------------------|--------------------|--------------------|
--------------------|--------------------|--------------------|
--------------------|--------------------|--------------------|


  Q    E  E  E  E     E  E  E  E  E  S. T    Q    E  E  E  E   
-------------------|----------------------|-------------------|
-------2-----2-----|--2-----2-----0--4----|-------2-----2-----|
--1-------1-----1--|-----1-----1----------|--2-------2-----2--|
-------------------|----------------------|-------------------|
-------------------|----------------------|-------------------|
-------------------|----------------------|-------------------|


  Q    E  E  E  S. T    Q    E  E  E  E     E  E  E  E  E  S. T  
---------------------|-------------------|----------------------|
--0-------------0----|-------2-----2-----|--2-----2-----0--2----|
-------------1-------|--1-------1-----1--|-----1----------------|
-------1--4----------|-------------------|-----------4----------|
---------------------|-------------------|----------------------|
---------------------|-------------------|----------------------|


  E  E  E  E  E  S. T    E  E  E  E  E  S. T    E  E  E  E  E  S. T  
-----0-----0-----0----|-----2-----2-----2----|----------------------|
--0-----0-----2-------|--2-----2-----2-------|-----4-----4-----4----|
----------------------|----------------------|--1-----1-----1-------|
----------------------|----------------------|----------------------|
----------------------|----------------------|----------------------|
----------------------|----------------------|----------------------|


  E  E  E  E  E  S. T    E  E  E  E  E  S. T    E  E  E  E  E  S. T  
-----------------4----|-----------------0----|-----------------2----|
-----4-----4----------|-----0-----0----------|-----2-----2----------|
--1-----1-----1-------|----------------------|----------------------|
----------------------|--2-----2-----2-------|--4-----4-----4-------|
----------------------|----------------------|----------------------|
----------------------|----------------------|----------------------|


  E  E  E  E  E  S. T    E  E  E  E  E  S. T    E  E  E  E  E  S. T  
----------------------|----------------------|----------------------|
--2-----2-----0--2----|-----0-----0-----4----|----------------------|
-----1-----1----------|--1-----1-----1-------|-----------------1----|
----------------------|----------------------|-----2-----2----------|
----------------------|----------------------|--0-----0-----0-------|
----------------------|----------------------|----------------------|


  E  E  E  E  E  S. T    E  E  E  E  E  S. T    E  E  E  E  E  S. T  
----------------------|----------------------|----------------------|
-----------------0----|--------2-----0--2----|--------2-----0--2----|
----------------------|-----1-----1----------|-----1-----1----------|
-----4-----4----------|--3-------------------|--3-------------------|
--2-----2-----2-------|----------------------|----------------------|
----------------------|----------------------|----------------------|


  Q    E  E  E  E     E  E  E  E  E  S. T    Q    E  E  E  E   
-------------------|----------------------|-------------------|
-------2-----2-----|--2-----2-----0--4----|-------2-----2-----|
--1-------1-----1--|-----1-----1----------|--2-------2-----2--|
-------------------|----------------------|-------------------|
-------------------|----------------------|-------------------|
-------------------|----------------------|-------------------|


  Q    E  E  E  S. T    Q    E  E  E  E     E  E  E  E  E  S. T  
---------------------|-------------------|----------------------|
--0-------------0----|-------2-----2-----|--2-----2-----0--2----|
-------------1-------|--1-------1-----1--|-----1----------------|
-------1--4----------|-------------------|-----------4----------|
---------------------|-------------------|----------------------|
---------------------|-------------------|----------------------|


  E  E  E  E  E  S. T    E  E  E  E  E  S. T    E  E  E  E  E  S. T  
-----0-----0-----0----|-----2-----2-----2----|----------------------|
--0-----0-----2-------|--2-----2-----2-------|-----4-----4-----4----|
----------------------|----------------------|--1-----1-----1-------|
----------------------|----------------------|----------------------|
----------------------|----------------------|----------------------|
----------------------|----------------------|----------------------|


  E  E  E  E  E  S. T    E  E  E  E  E  S. T    E  E  E  E  E  S. T  
-----------------4----|-----------------0----|-----------------2----|
-----4-----4----------|-----0-----0----------|-----2-----2----------|
--1-----1-----1-------|----------------------|----------------------|
----------------------|--2-----2-----2-------|--4-----4-----4-------|
----------------------|----------------------|----------------------|
----------------------|----------------------|----------------------|


  E  E  E  E  E  S. T    E  E  E  E  E  S. T    E  E  E  E  E  S. T  
----------------------|----------------------|----------------------|
--2-----2-----0--2----|-----0-----0-----4----|----------------------|
-----1-----1----------|--1-----1-----1-------|-----------------1----|
----------------------|----------------------|-----2-----2----------|
----------------------|----------------------|--0-----0-----0-------|
----------------------|----------------------|----------------------|


  E  E  E  E  E  S. T    H.              H        Q       Q    E  E  E  E   
----------------------|---------------|----------------|-------------------|
-----------------0----|--2------------|--L-------------|-------------------|
----------------------|---------------|----------------|-------3-----3-----|
-----4-----4----------|---------------|----------------|--3-------3-----3--|
--2-----2-----2-------|---------------|----------------|-------------------|
----------------------|---------------|----------------|-------------------|


  E  E  E  E  E  S. T    Q    E  E  E  E     Q    E  E  E  S. T  
----------------------|-------------------|---------------------|
----------------------|-------------------|---------------------|
--3-----3-----1--3----|-------3-----3-----|--1-------------1----|
-----3-----3----------|--4-------4-----4--|----------1--3-------|
----------------------|-------------------|-------3-------------|
----------------------|-------------------|---------------------|


  Q    E  E  E  E     E  E  E  E  E  S. T    E  E  E  E  E  S. T  
-------------------|----------------------|----------------------|
-------------------|----------------------|-----2-----2-----2----|
-------3-----3-----|--3-----3-----1--3----|--1-----1-----3-------|
--3-------3-----3--|-----3-----1----------|----------------------|
-------------------|----------------------|----------------------|
-------------------|----------------------|----------------------|


  E  E  E  E  E  S. T    E  E  E  E  E  S. T    E  E  E  E  E  S. T  
----------------------|----------------------|-----------------1----|
-----4-----4-----4----|-----1-----1-----1----|-----1-----1----------|
--3-----3-----3-------|----------------------|----------------------|
----------------------|--3-----3-----3-------|--3-----3-----3-------|
----------------------|----------------------|----------------------|
----------------------|----------------------|----------------------|


  E  E  E  E  E  S. T    E  E  E  E  E  S. T    E  E  E  E  E  S. T  
----------------------|----------------------|----------------------|
-----------------2----|-----------------4----|----------------------|
-----1-----1----------|-----3-----3----------|--3-----3-----1--3----|
----------------------|--1-----1-----1-------|-----3-----3----------|
--4-----4-----4-------|----------------------|----------------------|
----------------------|----------------------|----------------------|


  E  E  E  E  E  S. T    E  E  E  E  E  S. T    E  E  E  E  E  S. T  
----------------------|----------------------|----------------------|
-----------------1----|----------------------|----------------------|
-----2-----2----------|----------------------|-----------------1----|
--3-----3-----3-------|-----------------3----|-----1-----1----------|
----------------------|-----4-----4----------|----------------------|
----------------------|--2-----2-----2-------|--4-----4-----4-------|


  E  E  E  E  E  S. T    E  E  E  E  E  S. T    Q    E  E  E  E   
----------------------|----------------------|-------------------|
----------------------|----------------------|-------------------|
--------3-----1--3----|--------3-----1--3----|-------3-----3-----|
--0--3-----3----------|--0--3-----3----------|--3-------3-----3--|
----------------------|----------------------|-------------------|
----------------------|----------------------|-------------------|


  E  E  E  E  E  S. T    Q    E  E  E  E     Q    E  E  E  S. T  
----------------------|-------------------|---------------------|
----------------------|-------------------|---------------------|
--3-----3-----1--3----|-------3-----3-----|--1-------------1----|
-----3-----3----------|--4-------4-----4--|----------1--3-------|
----------------------|-------------------|-------3-------------|
----------------------|-------------------|---------------------|


  Q    E  E  E  E     E  E  E  E  E  S. T    E  E  E  E  E  S. T  
-------------------|----------------------|----------------------|
-------------------|----------------------|-----2-----2-----2----|
-------3-----3-----|--3-----3-----1--3----|--1-----1-----3-------|
--3-------3-----3--|-----3-----1----------|----------------------|
-------------------|----------------------|----------------------|
-------------------|----------------------|----------------------|


  E  E  E  E  E  S. T    E  E  E  E  E  S. T    E  E  E  E  E  S. T  
----------------------|----------------------|-----------------1----|
-----4-----4-----4----|-----1-----1-----1----|-----1-----1----------|
--3-----3-----3-------|----------------------|----------------------|
----------------------|--3-----3-----3-------|--3-----3-----3-------|
----------------------|----------------------|----------------------|
----------------------|----------------------|----------------------|


  E  E  E  E  E  S. T    E  E  E  E  E  S. T    E  E  E  E  E  S. T  
----------------------|----------------------|----------------------|
-----------------2----|-----------------4----|----------------------|
-----1-----1----------|-----3-----3----------|--3-----3-----1--3----|
----------------------|--1-----1-----1-------|-----3-----3----------|
--4-----4-----4-------|----------------------|----------------------|
----------------------|----------------------|----------------------|


  E  E  E  E  E  S. T    E  E  E  E  E  S. T    E  E  E  E  E  S. T  
----------------------|----------------------|----------------------|
-----------------1----|----------------------|----------------------|
-----2-----2----------|----------------------|-----------------1----|
--3-----3-----3-------|-----------------3----|-----1-----1----------|
----------------------|-----4-----4----------|----------------------|
----------------------|--2-----2-----2-------|--4-----4-----4-------|


  H.              H        Q                                             
---------------|----------------|-------|-------|-------|-------|-------|
---------------|----------------|-------|-------|-------|-------|-------|
--3------------|--L-------------|-------|-------|-------|-------|-------|
---------------|----------------|-------|-------|-------|-------|-------|
---------------|----------------|-------|-------|-------|-------|-------|
---------------|----------------|-------|-------|-------|-------|-------|


-------|-------|-------|-------|-------|-------|-------||
-------|-------|-------|-------|-------|-------|-------||
-------|-------|-------|-------|-------|-------|-------||
-------|-------|-------|-------|-------|-------|-------||
-------|-------|-------|-------|-------|-------|-------||
-------|-------|-------|-------|-------|-------|-------||




Piste 2
     Q       H.              H.              H.              H.            
E||-------|---------------|---------------|---------------|---------------|
B||-------|---------------|---------------|---------------|---------------|
G||-------|---------------|---------------|---------------|---------------|
D||-------|---------------|---------------|---------------|---------------|
A||-------|---------------|---------------|---------------|---------------|
E||-------|---------------|---------------|---------------|---------------|


  H.              H.              H.              H.            
---------------|---------------|---------------|---------------|
---------------|---------------|---------------|---------------|
---------------|---------------|---------------|---------------|
---------------|---------------|---------------|---------------|
---------------|---------------|---------------|---------------|
---------------|---------------|---------------|---------------|


  Q.     S S E  E     Q    E  E  Q       Q.     E  Q       Q.     E  Q     
-------------------|-------------0----|---------0-------|-----------------|
----------------0--|--1----1--3-------|--3---------1----|--0------1--0----|
--2------L---2-----|------------------|-----------------|-----------------|
-------------------|------------------|-----------------|-----------------|
-------------------|------------------|-----------------|-----------------|
-------------------|------------------|-----------------|-----------------|


  Q.     S S E  E     Q    Q    Q       Q.     E  E.  T T    Q.     E  Q     
-------------------|------------3----|--5------7----------|-----------------|
-------------------|-------5---------|------------8---L---|--7------8--7----|
--2------L---2--4--|--5--------------|--------------------|-----------------|
-------------------|-----------------|--------------------|-----------------|
-------------------|-----------------|--------------------|-----------------|
-------------------|-----------------|--------------------|-----------------|


  H.              E.  S Q    Q       Q.     E  Q       Q.     E  Q     
---------------|------------------|--5------7-------|-----------------|
--5------------|--L-----5----8----|------------8----|--7------5-------|
---------------|------------------|-----------------|------------7----|
---------------|------------------|-----------------|-----------------|
---------------|------------------|-----------------|-----------------|
---------------|------------------|-----------------|-----------------|


  Q    S. T E  Q       Q    Q    Q       Q.     S. T E  E     Q.     S S Q     
-------L------------|-----------------|--------------------|------------------|
--5------------5----|-----------------|-----------------5--|--3------L---3----|
------------2-------|--7----5----4----|--2------L----5-----|------------------|
--------------------|-----------------|--------------------|------------------|
--------------------|-----------------|--------------------|------------------|
--------------------|-----------------|--------------------|------------------|


  Q.     E  Q       H        E.  T T    Q.     S S E  E     Q    E  E  Q     
-----------------|-------------------|-------------------|-------------0----|
--2------0--2----|-------------------|----------------0--|--1----1--3-------|
-----------------|--2--------L---L---|--2------L---2-----|------------------|
-----------------|-------------------|-------------------|------------------|
-----------------|-------------------|-------------------|------------------|
-----------------|-------------------|-------------------|------------------|


  Q.     E  Q       Q.     E  Q       Q.     S S E  E     Q    Q    Q     
---------0-------|-----------------|-------------------|-------0----3----|
--3---------1----|--0------1--0----|----------------0--|--1--------------|
-----------------|-----------------|--2------L---2-----|-----------------|
-----------------|-----------------|-------------------|-----------------|
-----------------|-----------------|-------------------|-----------------|
-----------------|-----------------|-------------------|-----------------|


  Q.     E  E.  T T    Q.     E  Q       H.              E.  S Q    Q     
--5------7----------|-----------------|--0------------|--L-----0----3----|
------------8---L---|--7------8--7----|---------------|------------------|
--------------------|-----------------|---------------|------------------|
--------------------|-----------------|---------------|------------------|
--------------------|-----------------|---------------|------------------|
--------------------|-----------------|---------------|------------------|


  Q.     E  Q       Q.     E  Q       Q    S. T E  Q       Q    Q    Q     
--5------7-------|---------0-------|--0----L-------0----|-----------------|
------------8----|--7--------------|--------------------|--3----1----0----|
-----------------|------------7----|------------2-------|-----------------|
-----------------|-----------------|--------------------|-----------------|
-----------------|-----------------|--------------------|-----------------|
-----------------|-----------------|--------------------|-----------------|


  Q.     S. T E  E     Q    Q    Q       H.              Q.     S S E  E   
-----------------0--|-----------------|---------------|-------------------|
--------------1-----|--3----1----0----|---------------|----------------0--|
--2------L----------|-----------------|--2------------|--L------L---2-----|
--------------------|-----------------|---------------|-------------------|
--------------------|-----------------|---------------|-------------------|
--------------------|-----------------|---------------|-------------------|


  H.              H.              H.              H.              H.            
---------------|---------------|---------------|---------------|---------------|
---------------|---------------|---------------|---------------|---------------|
---------------|---------------|---------------|---------------|---------------|
---------------|---------------|---------------|---------------|---------------|
---------------|---------------|---------------|---------------|---------------|
---------------|---------------|---------------|---------------|---------------|


  H.              H.              H.              H.              H.            
---------------|---------------|---------------|---------------|---------------|
---------------|---------------|---------------|---------------|---------------|
---------------|---------------|---------------|---------------|---------------|
---------------|---------------|---------------|---------------|---------------|
---------------|---------------|---------------|---------------|---------------|
---------------|---------------|---------------|---------------|---------------|


  H.              H.              H.              H.              H.            
---------------|---------------|---------------|---------------|---------------|
---------------|---------------|---------------|---------------|---------------|
---------------|---------------|---------------|---------------|---------------|
---------------|---------------|---------------|---------------|---------------|
---------------|---------------|---------------|---------------|---------------|
---------------|---------------|---------------|---------------|---------------|


  H.              H        E  E     E.  T T E  E  Q       Q.     E  E.  T T  
---------------|-----------------|--0---L---0--2--4----|--2------4--0---L---|
---------------|--2--------2--4--|---------------------|--------------------|
---------------|-----------------|---------------------|--------------------|
---------------|-----------------|---------------------|--------------------|
---------------|-----------------|---------------------|--------------------|
---------------|-----------------|---------------------|--------------------|


  Q.     E  Q       Q.     S. T E  E     Q    Q    Q       Q.      E   E.  T T  
---------0-------|--------------------|--0----4----7----|--9------11-----------|
--4---------4----|--2------L----2--4--|-----------------|-------------12---L---|
-----------------|--------------------|-----------------|----------------------|
-----------------|--------------------|-----------------|----------------------|
-----------------|--------------------|-----------------|----------------------|
-----------------|--------------------|-----------------|----------------------|


   Q.      E   Q       H.              E.  T T Q    Q     
--------------------|---------------|----------4----7----|
--11------12--11----|--9------------|--L---L-------------|
--------------------|---------------|--------------------|
--------------------|---------------|--------------------|
--------------------|---------------|--------------------|
--------------------|---------------|--------------------|


  Q.      E   E.  T T     Q.     E   Q       Q.      E  Q     
--9------11-----------|-------------------|------------------|
-------------12---L---|--11------9--------|--9----------9----|
----------------------|-------------11----|------------------|
----------------------|-------------------|---------11-------|
----------------------|-------------------|------------------|
----------------------|-------------------|------------------|


   Q    Q    Q       Q.     S. T E  E     Q.     S. T Q       Q.     E  Q     
------------------|-----------------4--|--2------L----2----|--1---------1----|
------------------|--------------5-----|-------------------|---------4-------|
--11----9----8----|--6------L----------|-------------------|-----------------|
------------------|--------------------|-------------------|-----------------|
------------------|--------------------|-------------------|-----------------|
------------------|--------------------|-------------------|-----------------|


  H.              Q.     S S E  E     E.  T T E  E  Q       Q.     E  E.  T T  
---------------|-------------------|--0---L---0--2--4----|--2------4--0---L---|
--2------------|--2------L---2--4--|---------------------|--------------------|
---------------|-------------------|---------------------|--------------------|
---------------|-------------------|---------------------|--------------------|
---------------|-------------------|---------------------|--------------------|
---------------|-------------------|---------------------|--------------------|


  Q.     E  Q       Q.     S. T E  E     Q    Q    Q       Q.      E   E.  T T  
---------0-------|--------------------|--0----4----7----|--9------11-----------|
--4---------4----|--2------L----2--4--|-----------------|-------------12---L---|
-----------------|--------------------|-----------------|----------------------|
-----------------|--------------------|-----------------|----------------------|
-----------------|--------------------|-----------------|----------------------|
-----------------|--------------------|-----------------|----------------------|


   Q.      E   Q       H.              E.  S Q    Q       Q.      E   E.  T T  
--------------------|---------------|-------------7----|--9------11-----------|
--11------12--11----|--9------------|--L-----9---------|-------------12---L---|
--------------------|---------------|------------------|----------------------|
--------------------|---------------|------------------|----------------------|
--------------------|---------------|------------------|----------------------|
--------------------|---------------|------------------|----------------------|


   Q.     E   Q       Q    S. T E  Q       Q    Q    Q       Q.     S. T E  E   
-------------------|---------------4----|--2----0---------|--------------0--4--|
--11------9--------|--9----L------------|------------4----|--2------L----------|
-------------11----|------------6-------|-----------------|--------------------|
-------------------|--------------------|-----------------|--------------------|
-------------------|--------------------|-----------------|--------------------|
-------------------|--------------------|-----------------|--------------------|


  Q    Q    Q       H.              Q.     S. Q    T    H.            
--2----0---------|---------------|-------------------|---------------|
------------4----|--2------------|--L------L---------|---------------|
-----------------|---------------|-------------------|---------------|
-----------------|---------------|-------------------|---------------|
-----------------|---------------|-------------------|---------------|
-----------------|---------------|-------------------|---------------|


  H.              H.              H.              H.              H.            
---------------|---------------|---------------|---------------|---------------|
---------------|---------------|---------------|---------------|---------------|
---------------|---------------|---------------|---------------|---------------|
---------------|---------------|---------------|---------------|---------------|
---------------|---------------|---------------|---------------|---------------|
---------------|---------------|---------------|---------------|---------------|


  H.              H.              H.              H.              H.            
---------------|---------------|---------------|---------------|---------------|
---------------|---------------|---------------|---------------|---------------|
---------------|---------------|---------------|---------------|---------------|
---------------|---------------|---------------|---------------|---------------|
---------------|---------------|---------------|---------------|---------------|
---------------|---------------|---------------|---------------|---------------|


  H.              H.              H.              H.              H.            
---------------|---------------|---------------|---------------|---------------|
---------------|---------------|---------------|---------------|---------------|
---------------|---------------|---------------|---------------|---------------|
---------------|---------------|---------------|---------------|---------------|
---------------|---------------|---------------|---------------|---------------|
---------------|---------------|---------------|---------------|---------------|


  H.              H.              H.              H.              H.            
---------------|---------------|---------------|---------------|---------------|
---------------|---------------|---------------|---------------|---------------|
---------------|---------------|---------------|---------------|---------------|
---------------|---------------|---------------|---------------|---------------|
---------------|---------------|---------------|---------------|---------------|
---------------|---------------|---------------|---------------|---------------|


  H.              H.              H.              H.              H.            
---------------|---------------|---------------|---------------|---------------|
---------------|---------------|---------------|---------------|---------------|
---------------|---------------|---------------|---------------|---------------|
---------------|---------------|---------------|---------------|---------------|
---------------|---------------|---------------|---------------|---------------|
---------------|---------------|---------------|---------------|---------------|


  H.              H.              H.              H.              H.            
---------------|---------------|---------------|---------------|---------------|
---------------|---------------|---------------|---------------|---------------|
---------------|---------------|---------------|---------------|---------------|
---------------|---------------|---------------|---------------|---------------|
---------------|---------------|---------------|---------------|---------------|
---------------|---------------|---------------|---------------|---------------|


  H.              H.              H.              H.            
---------------|---------------|---------------|---------------|
---------------|---------------|---------------|---------------|
---------------|---------------|---------------|---------------|
---------------|---------------|---------------|---------------|
---------------|---------------|---------------|---------------|
---------------|---------------|---------------|---------------|


  H        E  E     Q.     S S E  E     Q    Q    Q       H.            
-----------------|----------------1--|-----------------|---------------|
--------------1--|--2------L---2-----|--4----2----1----|---------------|
-----------3-----|-------------------|-----------------|--3------------|
-----------------|-------------------|-----------------|---------------|
-----------------|-------------------|-----------------|---------------|
-----------------|-------------------|-----------------|---------------|


  Q.     E  E  E     Q.     S S E  E     Q    Q    Q       H.            
------------------|-------------------|-----------------|---------------|
------------------|-------------------|-----------------|---------------|
--L---------------|-------------------|-----------------|---------------|
------------------|----------------3--|--1--------------|---------------|
------------1--3--|--4------L---4-----|-------4----3----|--1------------|
------------------|-------------------|-----------------|---------------|


  H.              Q    H           H.              H.            
---------------|----------------|---------------|---------------|
---------------|----------------|---------------|---------------|
---------------|----------------|---------------|---------------|
---------------|----------------|---------------|---------------|
--L------------|--L-------------|--1------------|--L------------|
---------------|----------------|---------------|---------------|


  Q    H          
----------------||
----------------||
----------------||
----------------||
--L-------------||
----------------||




Piste 3
     Q       H.              H.              H.              H.            
E||-------|---------------|---------------|---------------|---------------|
B||-------|---------------|---------------|---------------|---------------|
G||-------|---------------|---------------|---------------|---------------|
D||-------|---------------|---------------|---------------|---------------|
A||-------|--0------------|--0------------|--0------------|--0------------|
E||-------|---------------|---------------|---------------|---------------|


  H.              H.              H.              H        E.  T T  
---------------|---------------|---------------|-------------------|
---------------|---------------|---------------|-------------------|
---------------|---------------|---------------|-------------------|
---------------|---------------|---------------|-----------------2-|
--0------------|--0------------|--0------------|---------------3---|
---------------|---------------|---------------|-------------------|


  T T E.  E  E  E  E     E  E  E  E  E  E     T T E.  E  E  E  E   
------0---0-----0-----|--0-----0-----0-----|------1---1-----1-----|
----1-----1-----1--1--|--1-----1-----1-----|----3-----3-----3-----|
--2-------2-----2--2--|--2-----2-----2-----|--2-------2-----2-----|
----------2-----2-----|--2-----2-----2-----|--3-------0-----0-----|
----------------------|--------------------|----------------------|
----------------------|--------------------|----------------------|


  T T E.  E  E  E  E     T T E.  E  E  E  E     E  E  E  E  E  E   
------3---3-----3-----|------0---0-----0-----|--0-----0-----0-----|
------3---3-----3-----|----1-----1-----1--1--|--1-----1-----1-----|
----4-----4-----4-----|--2-------2-----2--2--|--2-----2-----2-----|
--5-------5-----5-----|--2-------2-----2-----|--2-----2-----2-----|
--5-------------------|--3-------------------|--------------------|
----------------------|----------------------|--------------------|


  T T E.  E  E  E  E     T T E.  E  E  E  E     T T E.  E  E  E  E   
------0---0-----0-----|------2---2-----2-----|------0---0-----0-----|
----1-----1-----1-----|----3-----3-----3-----|----0-----0-----0-----|
--0-------0-----0-----|--2-------2-----2-----|--1-------1-----1-----|
--2-------2-----2-----|--4-------0-----0-----|--2-------2-----2-----|
--3-------3-----3-----|--5-------------------|--2-------2-----2-----|
----------------------|----------------------|----------0-----0-----|


  T T E.  E  E  E  E     T T E.  E  E  E  E     T T E.  E  E  E  E   
------0---0-----0-----|------0---0-----0-----|------2---5-----5-----|
----0-----0-----0-----|----1-----1-----1-----|----3-----7-----7-----|
--1-------1-----1-----|--0-------0-----0-----|--2-------7-----7-----|
--2-------2-----2-----|--2-------2-----2-----|--4-------7-----7-----|
--2-------2-----2-----|--3-------------------|--5-------------------|
----------0-----0-----|----------------------|----------------------|


  T T E.  E  E  E  E     T T E.  E  E  E  E     T T E.  E  E  E  E   
----------5-----5-----|----------4-----4-----|------1---5-----5-----|
------5---5-----5-----|----0-5---5-----5-----|----1-----6-----6-----|
----5-----5-----5-----|----------4-----4-----|--2-------5-----5-----|
--7-------7-----7-----|--6-------6-----6-----|--3-------------------|
--7-------------------|--7-------------------|--3-------------------|
--8-------------------|--7-------------------|----------------------|


  T T E.  E  E  E  E     T T E.  E  E  E  E     E  E  E  E  E  E   
----------3-----3-----|------0---5-----5-----|--5-----5-----5-----|
------3---3-----3-----|----2-----5-----5-----|--5-----5-----5-----|
----4-----4-----4-----|--2-------6-----6-----|--6-----6-----6-----|
--5-------------------|--2-------------------|--------------------|
--5-------------------|--4-------------------|--------------------|
----------------------|----------------------|--------------------|


  T T E.  E  E  E  E     E  E  E  E  E  E     T T E.  E  E  E  E   
------0---5-----5-----|--5-----5-----5-----|------5---5-----5-----|
----1-----5-----5--5--|--5-----5-----5-----|----3-6---6-----6-----|
--2-------5-----5--5--|--5-----5-----5-----|--2-------7-----7-----|
--2-------7-----7-----|--7-----7-----7-----|--3-------7-----7-----|
--3-------------------|--------------------|----------------------|
----------------------|--------------------|----------------------|


  T T E.  E  E  E  E     T T E.  E  E  E  E     E  E  E  E  E  E   
------3---3-----3-----|------0---5-----5-----|--5-----5-----5-----|
------3---3-----3-----|----1-----5-----5--5--|--5-----5-----5-----|
----4-----4-----4-----|--2-------5-----5--5--|--5-----5-----5-----|
--5-------5-----5-----|--2-------7-----7-----|--7-----7-----7-----|
--5-------------------|--3-------------------|--------------------|
----------------------|----------------------|--------------------|


  T T E.  E  E  E  E     T T E.  E  E  E  E     T T E.  E  E  E  E   
------0---3-----3-----|------2---5-----5-----|----------4-----4-----|
----------5-----5-----|----3-----7-----7-----|----0-5---5-----5-----|
--0-5-----5-----5-----|--2-------7-----7-----|----------4-----4-----|
--2-------5-----5-----|--4-------7-----7-----|--6-------6-----6-----|
--3-------------------|--5-------------------|--7-------------------|
----------------------|----------------------|--7-------------------|


  T T E.  E  E  E  E     T T E.  E  E  E  E     T T E.  E  E  E  E   
----------4-----4-----|------0---3-----3-----|------2---5-----5-----|
----0-5---5-----5-----|----1-----5-----5-----|----3-----7-----7-----|
----------4-----4-----|--0-------5-----5-----|--2-------7-----7-----|
--6-------6-----6-----|--2-------------------|--4-------7-----7-----|
--7-------------------|--3-------------------|--5-------------------|
--7-------------------|----------------------|----------------------|


  T T E.  E  E  E  E     T T E.  E  E  E  E     T T E.  E  E  E  E   
----------5-----5-----|----------4-----4-----|------1---5-----5-----|
------5---5-----5-----|----0-5---5-----5-----|----1-----6-----6-----|
----5-----5-----5-----|----------4-----4-----|--2-------5-----5-----|
--7-------7-----7-----|--6-------6-----6-----|--3-------------------|
--7-------------------|--7-------------------|--3-------------------|
--8-------------------|--7-------------------|----------------------|


  T T E.  E  E  E  E     T T E.  E  E  E  E     E  E  E  E  E  E   
----------3-----3-----|------0---5-----5-----|--5-----5-----5-----|
------3---3-----3-----|----1-----5-----5-----|--5-----5-----5-----|
----4-----4-----4-----|--2-------5-----5-----|--5-----5-----5-----|
--5-------------------|--2-------------------|--------------------|
--5-------------------|--3-------------------|--------------------|
----------------------|----------------------|--------------------|


  H.              H.              H.              H.              H.            
---------------|---------------|---------------|---------------|---------------|
---------------|---------------|---------------|---------------|---------------|
---------------|---------------|---------------|---------------|---------------|
---------------|---------------|---------------|---------------|---------------|
---------------|---------------|---------------|---------------|---------------|
---------------|---------------|---------------|---------------|---------------|


  H.              H.              H.              H.              H.            
---------------|---------------|---------------|---------------|---------------|
---------------|---------------|---------------|---------------|---------------|
---------------|---------------|---------------|---------------|---------------|
---------------|---------------|---------------|---------------|---------------|
---------------|---------------|---------------|---------------|---------------|
---------------|---------------|---------------|---------------|---------------|


  H.              H.              H.              H.              H.            
---------------|---------------|---------------|---------------|---------------|
---------------|---------------|---------------|---------------|---------------|
---------------|---------------|---------------|---------------|---------------|
---------------|---------------|---------------|---------------|---------------|
---------------|---------------|---------------|---------------|---------------|
---------------|---------------|---------------|---------------|---------------|


  H.              T T E.   E  E   E  E      E  E   E  E   E  E   
---------------|----0-4----9------9-----|---9------9------9-----|
---------------|--2--------9------9-----|---9------9------9-----|
---------------|--1--------9------9-----|---9------9------9-----|
---------------|--2-------11-----11-----|--11-----11-----11-----|
---------------|------------------------|-----------------------|
---------------|------------------------|-----------------------|


  T T  E.   E  E   E  E     T T E.  E  E  E  E     T T E.   E  E   E   E   
-------9----9------9-----|------7---7-----7-----|------4----9------9------|
----7-10---10-----10-----|------7---7-----7-----|----5------9------9------|
--6--------11-----11-----|----8-----8-----8-----|--6--------9------9---9--|
--7--------11-----11-----|----9-----9-----9-----|--6-------11-----11--11--|
-------------------------|--9-------------------|--7----------------------|
-------------------------|----------------------|-------------------------|


   E  E   E  E   E  E     T T E.  E  E  E  E     T T E.   E  E   E  E   
---9------9------9-----|----0-4---7-----7-----|------6----9------9-----|
---9------9------9-----|--0-------9-----9-----|----7-----11-----11-----|
---9------9------9-----|----------9-----9-----|--6-------11-----11-----|
--11-----11-----11-----|--6-------9-----9-----|--8-------11-----11-----|
-----------------------|--7-------------------|--9---------------------|
-----------------------|----------------------|------------------------|


   T  T E.   E  E   E  E     T T E.   E  E   E  E     T T E.  E  E  E  E   
-------------8------8-----|------4----8------8-----|----0-4---7-----7-----|
--------9----9------9-----|------4----9------9-----|--0-------9-----9-----|
--------8----8------8-----|----5------8------8-----|----------9-----9-----|
-----10-----10-----10-----|--6-------10-----10-----|--6-------------------|
--11----------------------|--6---------------------|--7-------------------|
--11----------------------|------------------------|----------------------|


  T T E.   E  E   E  E      T T E.   E  E   E  E      T T E.   E  E   E  E   
------6----9------9-----|------------9------9-----|------------8------8-----|
----7-----11-----11-----|-------9----9------9-----|-------9----9------9-----|
--6-------11-----11-----|-----9------9------9-----|-----8------8------8-----|
--8-------11-----11-----|--11-------11-----11-----|--10-------10-----10-----|
--9---------------------|--11---------------------|--11---------------------|
------------------------|--12---------------------|--11---------------------|


  T T E.   E  E   E  E     T T E.  E  E  E  E     T T E.   E  E   E  E   
------5----9------9-----|----------7-----7-----|------4----9------9-----|
----5-----10-----10-----|------7---7-----7-----|----6------9------9-----|
--6--------9------9-----|----8-----8-----8-----|--6-------10-----10-----|
--7---------------------|--9-------------------|--6---------------------|
--7---------------------|--9-------------------|--8---------------------|
------------------------|----------------------|------------------------|


   E  E   E  E   E  E     T T E.   E  E   E  E      E  E   E  E   E  E   
---9------9------9-----|------4----9------9-----|---9------9------9-----|
---9------9------9-----|----5------9------9-----|---9------9------9-----|
--10-----10-----10-----|--6--------9------9-----|---9------9------9-----|
-----------------------|--6-------11-----11-----|--11-----11-----11-----|
-----------------------|--7---------------------|-----------------------|
-----------------------|------------------------|-----------------------|


  T T  E.   E  E   E  E     T T E.  E  E  E  E     T T E.   E  E   E   E   
-------9----9------9-----|------7---7-----7-----|------4----9------9------|
----7-10---10-----10-----|------7---7-----7-----|----5------9------9------|
--6--------11-----11-----|----8-----8-----8-----|--6--------9------9---9--|
--7--------11-----11-----|----9-----9-----9-----|--6-------11-----11--11--|
-------------------------|--9-------------------|--7----------------------|
-------------------------|----------------------|-------------------------|


   E  E   E  E   E  E     T T E.  E  E  E  E     T T E.   E  E   E  E   
---9------9------9-----|----0-4---7-----7-----|------6----9------9-----|
---9------9------9-----|--0-------9-----9-----|----7-----11-----11-----|
---9------9------9-----|----------9-----9-----|--6-------11-----11-----|
--11-----11-----11-----|--6-------9-----9-----|--8-------11-----11-----|
-----------------------|--7-------------------|--9---------------------|
-----------------------|----------------------|------------------------|


   T  T E.   E  E   E  E     T T E.   E  E   E  E     T T E.  E  E  E  E   
-------------8------8-----|------4----8------8-----|----0-4---7-----7-----|
--------9----9------9-----|------4----9------9-----|--0-------9-----9-----|
--------8----8------8-----|----5------8------8-----|----------9-----9-----|
-----10-----10-----10-----|--6-------10-----10-----|--6-------------------|
--11----------------------|--6---------------------|--7-------------------|
--11----------------------|------------------------|----------------------|


  T T E.   E  E   E  E      T T E.   E  E   E  E      T T E.   E  E   E  E   
------6----9------9-----|------------9------9-----|------------8------8-----|
----7-----11-----11-----|-------9----9------9-----|-------9----9------9-----|
--6-------11-----11-----|-----9------9------9-----|-----8------8------8-----|
--8-------11-----11-----|--11-------11-----11-----|--10-------10-----10-----|
--9---------------------|--11---------------------|--11---------------------|
------------------------|--12---------------------|--11---------------------|


  T T E.   E  E   E  E     T T E.  E  E  E  E     T T H        E.   
------5----9------9-----|----------7-----7-----|------4--------L---|
----5-----10-----10-----|------7---7-----7-----|----5--------------|
--6--------9------9-----|----8-----8-----8-----|--6----------------|
--7---------------------|--9-------------------|--6----------------|
--7---------------------|--9-------------------|--7----------------|
------------------------|----------------------|-------------------|


  H        S E.     T T E.  E  E  E  E     E  E  E  E  E  E   
--L--------L-----|------1---6-----6-----|--6-----6-----6-----|
-----------------|----2-----6-----6--6--|--6--