Gametabs
Home
Tabs
Random

Q&A Recital!

Average rating: 3.000

2 ratings

Composer:

Tabber:

Style:

Instrument:

Created: October 05, 2012 at 12:00 AM

            Song: Q&A Recital!
Artist: Tomatsu Haruka
Anime: Tonari no Kaibutsu-kun
Type: OP - Opening (TV size)
TAB by: komarEX (http://www.youtube.com/user/komarEXcam)

Copyright © 2012 by komarEX, All rights reserved


e||-3--5--2--7--3--5-| x2
B||-3--5--2--7--3--5-|
G||-5--7--4--9--5--7-|
D||-5--7--4--9--5--7-|
A||-3--5--2--7--3--5-|
E||------------------|


e||-3x-3x-3x-3x--7x-7x-7x-7x--7x-7x-7x-7x-7x-7x-7x-7x--3x-3x-3x-3x--2x-2x-2x-2x----3x-3x-3-| x2
B||-3x-3x-3x-3x--7x-7x-7x-7x--8x-8x-8x-8x-8x-8x-8x-8x--4x-4x-4x-4x--3x-3x-3x-3x----4x-4x-4-|
G||-4x-4x-4x-4x--8x-8x-8x-8x--9x-9x-9x-9x-9x-9x-9x-9x--5x-5x-5x-5x--4x-4x-4x-4x----5x-5x-5-|
D||-5x-5x-5x-5x--9x-9x-9x-9x--9x-9x-9x-9x-9x-9x-9x-9x--5x-5x-5x-5x--4x-4x-4x-4x----5x-5x-5-|
A||--------------------------------------------------------------------------------3x-3x-3-|
E||--------------------------------------------------------------------------------3x-3x-3-|


e||------------| x2
B||------------|
G||-5--7-------|
D||-5--7--5--5-|
A||-3--5--5--5-|
E||-------3--3-|


e||-3--5----------3-|-3--5--5-|-5x-5x-5x-|
B||-3--5----------3-|-3--5--5-|-5x-5x-5x-|
G||-5--7----9--7--5-|-5--5--7-|-7x-7x-7x-|
D||-5--7----9--7--5-|-5--7--7-|-7x-7x-7x-|
A||-3--5----7--5--3-|-3--7--5-|-5x-5x-5x-|
E||-----------------|----5----|----------|


e||-3--5--2--7--3--5-| x4
B||-3--5--2--7--3--5-|
G||-5--7--4--9--5--7-|
D||-5--7--4--9--5--7-|
A||-3--5--2--7--3--5-|
E||------------------|


e||-3--3-|-3--5--2--7--3--5-|-3--5--2--7x-|
B||-3--3-|-3--5--2--7--3--5-|-3--5--2--7x-|
G||-3--5-|-5--7--4--9--5--7-|-5--7--4--9x-|
D||-5--5-|-5--7--4--9--5--7-|-5--7--4--9x-|
A||-5--3-|-3--5--2--7--3--5-|-3--5--2--7x-|
E||-3----|------------------|-------------|


Copyright © 2012 by komarEX, All rights reserved
        
Comments

No comments yet