Gametabs
Home
Tabs
Random

Q & A Recital

Average rating: 5.000

1 ratings

Composer:

Tabber:

Style:

Instrument:

Created: May 16, 2013 at 12:00 AM

                                            Q & A Recital   
			  Artist: Haruka Tomatsu                                
			Arranged By: Gianfranco Addante
                                                        

*Note: As per usual, tied notes were not included in the ASCII version of this arrangement to make the tablature
easier to read. Please see the downloadable Guitar Pro 5 file to view this arrangement with the tied notes included.
This arrangement is also fairly difficult so the Guitar Pro 5 file may be especially useful.


     Q.     E  Q.     E      E   E   E   E   E  E  E  E   
E||--7-------------------|---8---------------------------|
B||--5------8--8------8--|------12--10--12--10--8--------|
G||---------7--7------7--|----------------------------7--|
D||------------0---------|-------------------------------|
A||--3-------------------|--10------10-------------------|
E||----------------------|-------------------0-----0-----|


  E  E  E  E  E  E  E  E     E  Q    E  E  E  Q       Q.     E  Q    E   E   
--------------------7--5--|-------------------5----|--7--------------7---8--|
--5--8--------5--8--------|-----7----7--7--8-------|--5------8--8-----------|
--5--------7--5--------7--|-------------7----------|---------7--7-----------|
-----------------------0--|-------------0----------|------------0-----------|
--0-----0-----0-----------|------------------------|--3-----------------10--|
--------------------------|------------------------|------------------------|


  E   E   E   E   Q     Q       H        E  E  E  E     E  Q.      H         
---------10------------------|--------------------5--|------------10--------|
-----12----------------12----|--5-----------7--8-----|-----7----------------|
-------------11--12----------|--5--------------------|-----7----------------|
-----------------------------|-----------------------|----------------------|
---------10------------------|--------------------5--|----------------------|
------------------0----------|--5--------------------|----------------------|


  Q    E  E  E  E  E  E     H        E  E  E  E     E  E  Q    E  E  E  E   
-------------------------|--------------------2--|--5--3--3-------3-----3--|
--3----3--3--3--1--0--4--|--L--------4--4--5-----|--0-------------0-----0--|
--0----------0--------2--|--L--------2-----2-----|--0-------------0-----0--|
-------------------------|-----------------------|-------------------------|
----------------------2--|--L--------2-----2-----|-------------------------|
--3----------3-----------|-----------------------|--0-------------0-----0--|


  E  E  E  Q.     E  E     E  E  E  H        E     E  E  E  H        E   
-----3-----3---------0--|-----3--2--3-----------|-----3--2--3--------3--|
-----0-----0---------1--|-----------1--------3--|--3--------3-----------|
-----0-----0---------0--|-----------0-----------|--0--------0-----------|
------------------------|-----------------------|-----------------------|
---------------------3--|-----------3-----------|-----------------------|
-----0-----0------------|-----------------------|--3--------3-----------|


  E  Q    E  E  Q    E     Q    Q    Q    Q       Q    E  E  E  E  E  E   
--3--0----0--3--0----3--|--L----2----3----5----|-------------------------|
--2----------2-------3--|--L----3----3----3----|--3----3--3--3--1--0--4--|
--0----------0-------2--|--L----2----2---------|--0----------0--------2--|
---------------------0--|--L---------0---------|-------------------------|
--0----------0----------|----------------------|----------------------2--|
------------------------|----------------------|--3----------3-----------|


  H        E  E  E  E     E  E  Q    E  E  E  E     E  E  E  E  E  Q    E   
--------------------2--|--5--3--3-------3-----3--|-----1-----1-----1-------|
--L--------4--4--5-----|--0-------------0-----0--|-----0-----0-----0----3--|
--L--------2-----2-----|--0-------------0-----0--|-----0-----0-----0-------|
-----------------------|-------------------------|-------------------------|
--L--------2-----2-----|-------------------------|-------------------------|
-----------------------|--0-------------0-----0--|-----3-----3-----3-------|


  E  E  E  H        E     E  E  E  H        E     E  Q    E  E  Q    E   
--0--3--2--3-----------|-----3--2--3--------3--|--3--0----0--3--0----3--|
--1--------1--------3--|--3--------3-----------|--2----------2-------3--|
--0--------0-----------|--0--------0-----------|--0----------0-------2--|
-----------------------|-----------------------|---------------------0--|
--3--------3-----------|-----------------------|--0----------0----------|
-----------------------|--3--------3-----------|------------------------|


  Q    Q    Q    Q       Q    Q    E  E  E  E     E  E  E  E  Q    E  E   
--L----2----3----5----|------------0--2--3--2--|--L--2--2--2--2----0-----|
--L----3----3----3----|-------1-------------3--|----------------------3--|
--L----2----2---------|-------0-------------2--|----------------------4--|
--L---------0---------|---------------------0--|-------------------------|
----------------------|--3---------------------|-------------------------|
----------------------|------------------------|----------------------3--|


  Q    Q    E  Q    E     Q    Q    E  Q.        Q    Q    E  E  E  E   
-------7----5--3-------|-------7----5--3------|------------0--2--3--2--|
--L-----------------3--|--L-------------------|-------1-------------3--|
--L-----------------4--|--L-------------------|-------0-------------2--|
-----------------------|----------------------|---------------------0--|
-----------------------|----------------------|--3---------------------|
--L-----------------3--|--L-------------------|------------------------|


  E  E  E  E  Q    E  E     Q    Q    E  E  E  E     E  E  Q    Q    Q     
--L--2--2--2--2----0-----|-------7----5-----------|-----1--1----1---------|
--------------3-------3--|--L------------0--1--3--|--L--0--0----0----0----|
--------------2-------4--|--L---------------------|-----0--0----0----0----|
--------------0----L-----|------------------------|-----0--0----0---------|
-------------------------|------------------------|-----2--2----2---------|
----------------------3--|--L---------------------|-----3--3----3---------|


  Q    E  Q    E  E  E     Q    Q    Q    Q       Q    E  Q    E  Q     
--0----0--0----0--0-----|------------7----5----|--5----7--3----2--3----|
--1----1--1----------4--|--L-------------------|--0---------------2----|
--0-------0-------------|-------4--------------|--0---------------0----|
---------------------4--|--L-------------------|----------0------------|
--3-------3----------2--|--L-------------------|------------------0----|
------------------------|------------7----5----|--0--------------------|


  H        E  E  E  E     E  E  E  Q    E  E  E     E  E  E  E  E  E  E  E   
--L--------L--0--2--3--|--L--0--2--3----0--3--8--|--L--8--7--7--5--------7--|
--L-----------------1--|--L--------1----------5--|--L-----5-----5--8--8-----|
--L--------L--------0--|--L--------0----------5--|--L-----5-----5-----5-----|
-----------------------|-------------------------|--------------------------|
--L--------L--------3--|--L--------3-------------|--------------------------|
-----------------------|----------------------5--|--L-----5-----5-----5-----|


  Q.     E  Q.     E     E  Q    E  H           E  E   Q    E  E   Q     
--7------5--5------7--|--L--7----5--5--------|--------10----------10----|
--7---------7------7--|--L--7----7--7--------|---------7-----------7----|
--7---------7------7--|--L--7----7--7--------|---------7-----------7----|
----------------------|----------------------|--0--0--------0--0--------|
--5---------5------5--|--L--5----5--5--------|--------------------------|
----------------------|----------------------|--------------------------|


   Q    E  E  E  E  Q       H        Q.     E      E   E   E   E  E  E  E  E   
--10----------3--3--5----|--7------------------|---8--------------------------|
---7----5--5-------------|--5--------8------8--|------12--10--12-----8-----5--|
---7---------------------|-----------7------7--|---------------------------5--|
---0---------------------|-----------0---------|------------------------------|
-------------------------|--3------------------|--10------10---------------0--|
-------------------------|---------------------|------------------0-----0-----|


  E  E  E  E  E  E  E  E     E  H        Q.        Q.     E  Q.     E   
--------------8--7-----5--|-----7--------L------|--7-------------------|
--L--8--8--8--7-----8-----|-----3--------L------|--5------8--8------8--|
--L-----------------------|-----4--------L------|---------7--7------7--|
--------------0-----------|---------------------|------------0---------|
--L-----0-----------------|---------------------|--3-------------------|
--------------------------|-----3--------L------|----------------------|


   E   E   E   E   E  E  E  E     Q    E  Q    Q    E     Q.     H        E   
---8---------------------------|-------3--3----2----3--|--L------1--------L--|
------12--10--12--10--8-----1--|--1-----------------0--|--L------0--------L--|
-------------------------------|--2-------2---------0--|--L------0--------L--|
-------------------------------|----------0------------|---------------------|
--10------10-------------------|--0--------------------|---------------------|
-------------------0-----0-----|--------------------3--|--L------3--------L--|


  Q.     E  Q.     E      E   E   E   E  E  E  E  E   
--7-------------------|---8--------------------------|
--5------8--8------8--|------12--10--12-----8-----5--|
---------7--7------7--|---------------------------5--|
------------0---------|------------------------------|
--3-------------------|--10------10---------------0--|
----------------------|------------------0-----0-----|


  E  E  E  E  E  E  E  E     E  H        Q.        Q.     E  Q.     E   
--------------8--7-----5--|-----7--------L------|--7-------------------|
--L--8--8--8--7-----8-----|-----3--------L------|--5------8--8------8--|
--L-----------------------|-----4--------L------|---------7--7------7--|
--------------0-----------|---------------------|------------0---------|
--L-----0-----------------|---------------------|--3-------------------|
--------------------------|-----3--------L------|----------------------|


   E   E   E   E   E  E  E  E     E  E  E  E  E  E  E  E   
---8---------------------------|-----------------------8--|
------12--10--12--10--8--------|--5--8--------5--8--L--7--|
----------------------------7--|--5--------7--5-----------|
-------------------------------|--------------------------|
--10------10-------------------|-----------------------5--|
-------------------0-----0-----|--5-----5-----5-----------|


  Q     E  E  E  E  E  E     H        H           E  E  E  Q    Q.      
--L-----7--7--5--------3--|--L--------3--------|--8--7--5--3----5------|
--L-----------7--8--7--4--|--L--------4--------|-----------------------|
-----------------------5--|--L-----------------|-----------------------|
--------------------------|--------------------|-----------------------|
--L-----------5--------3--|--L-----------------|-----------------------|
--------------------------|--------------------|-----------------------|


  Q    Q    E  Q    E     E  E  E  E  Q    Q       Q    Q    Q    Q     
--3----7----5--3-------|--0--3--3--0--3----5----|------------3----8----|
--5-----------------3--|--0-----------0---------|-------3----3---------|
--5----L---------------|--0-----------0---------|--2---------2---------|
------------0----------|------------------------|--2---------0---------|
--3----L---------------|------------------------|--0-------------------|
-----------------------|--3-----------0---------|----------------------|


  W                   Q    Q    E  Q    E     E  E  E  E  Q    Q     
--7----------------|-------7----5--3-------|--0--3--3--0--3----5----|
--3----------------|--5-----------------3--|--0-----------0---------|
--4----------------|--5--------------------|--0-----------0---------|
-------------------|------------0----------|------------------------|
-------------------|--3--------------------|------------------------|
--3----------------|-----------------------|--3-----------0---------|


  Q    Q    Q    Q       H        H          
-----------------8----|--7-----------------||
------------8---------|--------------------||
-------7--------------|--------------------||
----------------------|--------------------||
----------------------|--------------------||
----------------------|--------------------||




Duration Legend
---------------
W - whole
H - half
Q - quarter
E - 8th
S - 16th
T - 32nd
X - 64th
. - note dotted
|-n-|  - n-tuplets


Tablature Legend
----------------
L - tied note
x - dead note
g - grace note
(n) - ghost note
> - accentuded note
NH - natural harmonic
AH - artificial harmonic
TH - tapped harmonic
SH - semi harmonic
PH - pitch harmonic
h - hammer on
p - pull off
b - bend
br - bendRelease
pb - preBend
pbr - preBendRelease
brb - bendReleaseBend
\n/ - tremolo bar dip
\n - tremolo bar dive
-/n - tremolo bar Release up
/n\ - tremolo bar inverted dip
/n - tremolo bar return
-\n - tremolo bar Release down
S - shift slide
s - legato slide
/ -  slide into from below or out of upwards
\ -  slide into from above or out of downwards
~ - vibrato
W - wide vibrato
tr - trill
TP - tremolo picking
T - tapping
S - slap
P - pop
< - fade in
^ - brush up
v - brush down

        
Comments

No comments yet