Gametabs
Home
Tabs
Random

Love Song

Average rating: 5.000

2 ratings

Composer:

Tabber:

Style:

Instrument:

Created: June 04, 2013 at 12:00 AM

                                      Love Song
                                
Tomoyo After: It's a Wonderful Life
Jun Maeda
Tabbed by Basisti94 (Miro Laaksonen)
4.6.2013


It should be correct. Let me know if I made a mistake somewhere.
I didn't really add dynamics to midi so I'd recommend listening actual
song once or twice for the reference.



Tempo ~ 59

Lead Guitar
                     E    E  E  E  E.  S Q       E    E  E  E  Q    E  E   
E||-------|-------|-----3g7--7--5--7---8-L----|-----3g5--5--3--5----7--5--|
B||-------|-------|---------------------------|---------------------------|
G||-------|-------|---------------------------|---------------------------|
D||-------|-------|---------------------------|---------------------------|
A||-------|-------|---------------------------|---------------------------|
E||-------|-------|---------------------------|---------------------------|


  H.           S  S E     Q    E  Q.     S  S E       Q    E  Q.     S  S E   
--3------------2s-3-5--|--3----3--5------3s-5-7--|---------------------------|
-----------------------|-------------------------|--5g8----8-----------------|
-----------------------|-------------------------|------------7------5s-7-9--|
-----------------------|-------------------------|---------------------------|
-----------------------|-------------------------|---------------------------|
-----------------------|-------------------------|---------------------------|


  Q    E  E  Q    E  E     E  E  E  E  E.    S Q       E  E  E  E  Q    E  E   
-------------5----7--5--|-----7--7--5--7---7g8-L----|-----5--5--3--5----7--5--|
-------7--8-------------|---------------------------|-------------------------|
--7---------------------|---------------------------|-------------------------|
------------------------|---------------------------|-------------------------|
------------------------|---------------------------|-------------------------|
------------------------|---------------------------|-------------------------|


  H.           S  S E     Q    E  Q.     S  S E     Q    E  Q.     S  S E   
--3------------2s-3-5--|--3----3--5------3s-5-7--|-------------------------|
-----------------------|-------------------------|--8----8-----------------|
-----------------------|-------------------------|----------7------5s-7-9--|
-----------------------|-------------------------|-------------------------|
-----------------------|-------------------------|-------------------------|
-----------------------|-------------------------|-------------------------|


  Q    E  E  Q    E  E     W                   H.           E  S  S  
-------------5----------|-------------------|------------------5s-7-|
-------7--8-------8--7--|--8----------------|-----------------------|
--7---------------------|-------------------|-----------------------|
------------------------|-------------------|-----------------------|
------------------------|-------------------|-----------------------|
------------------------|-------------------|-----------------------|


  Q     E  S S Q    E   S S    Q    E  S S Q    E  S  S  
--9----10--9-7-L----9b--7-5-|--L-------5-5-L-------5s-7-|
----------------------------|-------5-------------------|
----------------------------|---------------------------|
----------------------------|---------------------------|
----------------------------|---------------------------|
----------------------------|---------------------------|


  Q     E      E  Q    E  S  S    H.           S  S E   
--9----10--10g12--7----9--7s-5-|--L------------4s-5-7--|
-------------------------------|-----------------------|
-------------------------------|-----------------------|
-------------------------------|-----------------------|
-------------------------------|-----------------------|
-------------------------------|-----------------------|


  Q    E  Q.     S  S E     Q    E   Q.     S  S E     Q     S  E.  Q    E  E   
--5----5--7------5s-7-9--|--5----5s--7------5s-7-9--|--5----10s-9---7----5--4--|
--5----5--7--------------|--5----5s--7--------------|--3-----5------7----------|
-------------------------|--------------------------|--------------------------|
-------------------------|--------------------------|--------------------------|
-------------------------|--------------------------|--------------------------|
-------------------------|--------------------------|--------------------------|


  H.           S  E.      Q        E   Q.     E  S   S  
--5------------9-10---|--12----12g14--12---------9s-10-|
----------------------|--------------------------------|
----------------------|--------------------------------|
----------------------|--------------------------------|
----------------------|--------------------------------|
----------------------|--------------------------------|


   Q     E   Q.     E  S  S    Q     E  E  Q    E     E   
--12----14-------------5s-7-|--8-------------------------|
------------12--------------|-------10--8--8----8--8g10--|
----------------------------|----------------------------|
----------------------------|----------------------------|
----------------------------|----------------------------|
----------------------------|----------------------------|


   H.           S S  E      Q        E   Q.     E  S   S  
------------------9-10--|--12----12g14--12---------9s-10-|
---L--------------------|--------------------------------|
------------------------|--------------------------------|
------------------------|--------------------------------|
------------------------|--------------------------------|
------------------------|--------------------------------|


   Q     E   Q.     E  S  S    Q.      S S Q    Q       H.           E  S  S  
--12----14-------------5s-7-|--8------10-8-7---------|--5---------------5s-7-|
------------12--------------|-------------------8----|-----------------------|
----------------------------|------------------------|-----------------------|
----------------------------|------------------------|-----------------------|
----------------------------|------------------------|-----------------------|
----------------------------|------------------------|-----------------------|


  Q     E  S  S Q      E  S S    Q    E  S S Q    E  S  S  
--9----10--9s-7-L----7g9--7-5-|--L-------5-5-L-------5s-7-|
------------------------------|-------5-------------------|
------------------------------|---------------------------|
------------------------------|---------------------------|
------------------------------|---------------------------|
------------------------------|---------------------------|


  Q     E   E  Q    E  S  S    H.           S  S E     Q    E  Q.     S  S E   
--9----10--12--7----9--7s-5-|--L------------3s-5-7--|--5----5--7------5s-7-9--|
----------------------------|-----------------------|-------------------------|
----------------------------|-----------------------|-------------------------|
----------------------------|-----------------------|-------------------------|
----------------------------|-----------------------|-------------------------|
----------------------------|-----------------------|-------------------------|


                                                       ^                 
  Q    E  Q.     S S  E     Q     S  E.  Q    E  E     W                 
--5----5--7------5-7s-9--|--5----10s-9---7----5--4--|--5----------------|
-------5--7--------------|--3-----5------7----5-----|--5----------------|
-------------------------|--------------------------|--6----------------|
-------------------------|--------------------------|-------------------|
-------------------------|--------------------------|-------------------|
-------------------------|--------------------------|-------------------|


----------------------------------------------------------------


Backing Guitar 

Tempo ~ 59

   Note: These two bars at the beginning are played by piano in the original song.
  
     E  S E  E.  E  S E  E.     E  S E  E.  E  S E  E.   
E||--7-----------7-----------|--7-----------7-----------|
B||-----5----7------5----7---|-----5----7------5----7---|
G||--7----7------7----7------|--7----7------7----7------|
D||--------------------------|--------------------------|
A||--------------------------|--------------------------|
E||--------------------------|--------------------------|


  E  E  E  E  E  E  Q       E  E  E  E  E  E  Q       E  E  E  E  E  E  E  E   
--------------------0----|--------2-----------2----|--------3-----------3-----|
--------0-----------1----|--------------------3----|-----------5-----------5--|
-----------------0-------|-----2-----2-----2-------|-----4-----------4--------|
-----0-----0-------------|--0----------------------|--2-----------0-----------|
--------------3----------|--------------2----------|--------------------------|
--3----------------------|-------------------------|--------------------------|


  E  E  E  E  E  E  E  E     E  E  E  E  E  E  E  E   
--------0--------------0--|--------------------------|
-----------2--------1-----|--------0-----------------|
-----2-----------0--------|-----0-----0-----0--3--0--|
--------------------------|--------------------------|
--4-----------3-----------|--2-----------1-----------|
--------------------------|--------------------------|


                    ^                                                           
  E  E  E  E  E  E  E  E     E  E  E  E  E  E  E  E     E  E  E  E  E  E  Q     
--------------------------|--------------------0--3--|-------------------------|
-----------1--------4-----|-----------0--------1-----|--------4-----------3----|
--------2-----------5-----|--------0--------0--------|-----------4-----0-------|
-----2-----------4-----4--|-----0--------------------|-----4--------2----------|
--0-----------5-----------|--------------3-----------|--2----------------------|
--------------------------|--3-----------------------|-------------------------|


  E  E  E  E  E  E  E  E     E  E  E  E  E  E  E  E     E  E  E  E  E  E  Q     
--------------------------|--------0-----------2-----|-------------------------|
--------3-----------3-----|-----------1-----------3--|--------3-----------3----|
-----------4-----0-----2--|-----0-----------2--------|-----0-----0-----0-------|
-----5--------2-----------|--------------0-----------|-------------------------|
--5-----------------------|--3-----------------------|--2----------------------|
--------------------------|--------------------------|--------------0----------|


                                                                    ^    ^     
  E  E  E  E  E  E  E  E     E  E  E  E  E  E  E  E     E  E  E  E  Q    Q     
--------------------------|--------------0-----------|--------------2----4----|
--------1-----------------|--------1-----------1-----|-----------0--3----5----|
-----0-----0--------5-----|-----0-----0-----0-----0--|--------2-----2----4----|
-----------------4-----4--|--------------------------|-----0--------0----2----|
--0-----------5-----------|--3-----------------------|--------------0----2----|
--------------------------|--------------------------|--3---------------------|


  E  E  E  E  E  E  E  E     E   E  E  E  E  E  E  E   
--------------------------|---------5-----------0-----|
--------2-----------3-----|------------5--------------|
--------------------------|------------------------2--|
-----2-----2-----2-----2--|--0h--2-----------2--------|
--0-----------2-----------|---------------4-----------|
--------------------------|---------------------------|


  E  E  E  E  E  E  Q       E  E  E  E  E  E  E  E     E  E  Q    E  E  E  E   
-------------------------|--------------2-----------|-------------------------|
--------------------5----|--------3-----------3-----|-------------------------|
--------2--------2-------|-----2-----2-----2-----2--|--------2----------2-----|
-----2-----2--2----------|--0-----------------------|-----2----------2-----2--|
-------------------------|--------------------------|--4----------5-----------|
--2----------------------|--------------------------|-------------------------|


                            ^     ^     ^     ^      
  E  E  E  E  E  E  Q       E  E  E  E  E  E  E  E   
--------0----------------|--------------------------|
-----------2--------3----|--------------------------|
-----2-----------2-------|--------------------------|
--------------0----------|--4--4--6--6--7--7--6--6--|
--4----------------------|--2-----4-----5-----7-----|
-------------------------|--------------------------|


              NH    NH                                   
  E  E  E     E     H           E  E  E  E  E  E  E  E   
-----------------<>12--------|--------------------------|
-----------<>12--------------|--------0-----------2-----|
--------2--------------------|--------0-----------2-----|
-----2-----------------------|-----0-----0-----2-----2--|
--0--------------------------|--------------0-----------|
-----------------------------|--3-----------------------|


  E  E  E  E  E  E  E  E     E  E  Q    E  E  Q       E  E  E  Q.     Q     
--------------------------|------------------------|-----------0-----------|
--------3-----------------|--------1----------3----|-----------------------|
-----0-----0--------2-----|--------2----------2----|--------2---------2----|
--------------------------|----------------0-------|-----2-----------------|
-----------------4-----4--|-----3------------------|--0--------------------|
--3-----------2-----------|--1----------3----------|-----------------------|


  E  E  E  E  E  E  E  E     E  E  E  E  E  E  E  E     E  E  Q    E  E  Q     
--------------------------|--------------------------|------------------------|
--------0-----------2-----|--------3-----------------|--------1----------3----|
--------0-----------2-----|-----0-----0--------2-----|--------2----------0----|
-----0-----0-----2-----2--|--------------------------|----------------0-------|
--------------0-----------|-----------------4-----4--|-----3------------------|
--3-----------------------|--3-----------2-----------|--1----------3----------|


  E  E  E  Q.     Q       E  E  E  E  E  E  E  E     E   E  E  E  E  E  E  E   
-----------0-----------|--------------------------|---------5-----------0-----|
-----------------------|--------2-----------3-----|------------5--------------|
--------2---------2----|--------------------------|------------------------2--|
-----2-----------------|-----2-----2-----2-----2--|--0h--2-----------2--------|
--0--------------------|--0-----------2-----------|---------------4-----------|
-----------------------|--------------------------|---------------------------|


  E  E  E  E  E  E  Q       E  E  E  E  E  E  E  E   
-------------------------|--------------2-----------|
--------------------5----|--------3-----------3-----|
--------2--------2-------|-----2-----2-----2-----2--|
-----2-----2--2----------|--0-----------------------|
-------------------------|--------------------------|
--2----------------------|--------------------------|


  E  E  E  E  E   E  E  E     E  E  E  E  E  E  Q     
-----------0------------0--|--------0----------------|
---------------------------|-----------2--------3----|
--------2------------2-----|-----2-----------2-------|
-----2--------0h--2--------|--------------0----------|
--4------------------------|--4----------------------|
---------------------------|-------------------------|


  ^     ^     ^     ^                    ^                
  E  E  E  E  E  E  E  E     E  E  E  E  H                
--------------------------|-----------0--0--------|-----||
--------------------------|--------3-----2--------|-----||
--------------------------|--------------2--------|-----||
--4--4--6--6--7--7--6--6--|-----2--------2--------|-----||
--2-----4-----5-----7-----|--0-----------0--------|-----||
--------------------------|-----------------------|-----||


Still waiting for Doci to release English patch for the memorial edition of 
the VN by the way. I really want to read it, but with Key titles, I really would 
prefer the all ages version. 


Duration Legend
---------------
W - whole
H - half
Q - quarter
E - 8th
S - 16th
T - 32nd
X - 64th
. - note dotted
|-n-|  - n-tuplets


Tablature Legend
----------------
L - tied note
x - dead note
g - grace note
(n) - ghost note
> - accentuded note
NH - natural harmonic
AH - artificial harmonic
TH - tapped harmonic
SH - semi harmonic
PH - pitch harmonic
h - hammer on
p - pull off
b - bend
br - bendRelease
pb - preBend
pbr - preBendRelease
brb - bendReleaseBend
\n/ - tremolo bar dip
\n - tremolo bar dive
-/n - tremolo bar Release up
/n\ - tremolo bar inverted dip
/n - tremolo bar return
-\n - tremolo bar Release down
S - shift slide
s - legato slide
/ -  slide into from below or out of upwards
\ -  slide into from above or out of downwards
~ - vibrato
W - wide vibrato
tr - trill
TP - tremolo picking
T - tapping
S - slap
P - pop
< - fade in
^ - brush up
v - brush down



        
Comments

@Basisti94 (June 04, 2013 at 10:20 PM)

Oh yeah, credits to whoever was the guy who made this sheet music. It really saved me a lot of time when it came to figuring the backing guitar http://sound.jp/m_maru/tomoyo-after/03lovesong.pdf


@noctisnw1 (June 05, 2013 at 11:03 AM)

You did this amazingly well! :)