Gametabs
Home
Tabs
Random

Light Colors

Average rating: 5.000

7 ratings

Composer:

Tabber:

Style:

Instrument:

Created: April 06, 2013 at 12:00 AM

            Tomoyo After: It's a Wonderful Life
Light Colors
Composed by Shinji Orito
Arranged by Chelsea Intal
3-30-13

Standard tuning EADGBe
Capo fret 2


     E  S E  S E  E  E  E  E     E  S E  S E  E  E  E  E   
E||------------------------0--|---------------------------|
B||--2----0----2-----0--2-----|--2---------2--------2-----|
G||---------------------------|-------4----------4-----4--|
D||-----2---------------------|-----4---------------------|
A||--0------------0-----------|--2------------2-----------|
E||----------x----------------|----------x----------------|


  E  S E  S E  E  E  E  E     E  S E  S E  E  E  E  E   
------------------------0--|---------------------------|
-------0----------0--------|-------0----------0--------|
--6---------6--------6-----|--6---------6--------6-----|
---------------------------|-----6------------------6--|
-----6---------------------|--4------------4-----------|
--4-------x----4-----------|----------x----------------|


  E  S E  S E  E  E  E  E     E  S E  S E  E  E  E  E   
------------------------0--|---------------------------|
--2----0----2-----0--2-----|--2---------2--------2-----|
---------------------------|-------4----------4-----4--|
-----2---------------------|-----4---------------------|
--0------------0-----------|--2------------2-----------|
----------x----------------|----------x----------------|


  E  S E  S E  E  E  E  E     E  S E  S E  E  E  E  E   
------------------------0--|---------------------------|
-------0----------0--------|-------0----------4--5--7--|
--6---------6--------6-----|--6---------6--6-----------|
---------------------------|-----6---------------------|
-----6---------------------|--4------------4-----------|
--4-------x----4-----------|----------x----------------|


  E  S E  S E  E  E  E  E     E  S E  S E  E  S E  S E   
--4----4----2-----------0--|---------------2----7----4--|
---------------2--0--2-----|--2---------2---------------|
---------------------------|-------4--------------------|
-----2---------------------|-----4------------4---------|
--0------------0-----------|--2------------2------------|
----------x----------------|----------x------------x----|


  E  S E  S E  E  E  E  E     E  S E  S E  E  E  E  E   
------------4-----------0--|--0------------------------|
--7----7-------0-----4-----|-------0----------4--5--7--|
------------6-----6--------|--6---------6--6-----------|
-----4---------------------|-----6---------------------|
---------------------------|--4------------4-----------|
--4-------x----4-----------|----------x----------------|


  E  S E  S E  E  E  E  E     E  S E  S E  E  E  E  E   
--4----4----2-----------0--|------------0--------------|
---------------2--0--2-----|--2------------4--2--0--2--|
---------------------------|-------4-------------------|
-----2---------------------|-----4------------4--------|
--0------------0-----------|--2------------2-----------|
----------x----------------|----------x----------------|


  E  S E  S E  E  E  E  E     E  E  E  E  E  E  E  E   
------------0--------------|--4-----4-----0--2--------|
--4------------------7--4--|--------------------4--0--|
------------6--------------|--------------------------|
-------6----------6--------|-----6--------------------|
-----6---------------------|--4-----------4-----------|
--4-------x----4-----------|-----------x--------------|


  E  S E  S E  E  E  E  E     E  S E  S E  E  E  E  E   
------------------------0--|---------------------------|
--2----0----2-----0--2-----|--2---------2--------2-----|
---------------------------|-------4----------4-----4--|
-----2---------------------|-----4---------------------|
--0------------0-----------|--2------------2-----------|
----------x----------------|----------x----------------|


  E  S E  S E  E  E  E  E     E  S E  S E  E  E  E  E   
------------------------0--|---------------------------|
-------0----------0--------|-------0----------0--------|
--6---------6--------6-----|--6---------6--------6-----|
---------------------------|-----6------------------6--|
-----6---------------------|--4------------4-----------|
--4-------x----4-----------|----------x----------------|


  E  S E  S E  E  E  E  E     E  S E  S E  E  E  E  E   
------------------------0--|---------------------------|
--2----0----2-----0--2-----|--2---------2--------2-----|
---------------------------|-------4----------4-----4--|
-----2---------------------|-----4---------------------|
--0------------0-----------|--2------------2-----------|
----------x----------------|----------x----------------|


  E  S E  S E  E  E  E  E     E  S E  S E  E  E  E  E   
------------------------0--|------------------------0--|
-------0----------0--------|-------0----------0--------|
--6---------6--------6-----|--6---------6--------6-----|
---------------------------|-----6---------------------|
-----6---------------------|--4------------4-----------|
--4-------x----4-----------|----------x----------------|


    E  E  E  E  E  E  E  E     E  E  E  Q    E  E  E   
|---------------------1--3--|-------------------------|
|------------4--3--4--------|--3-----4--3-------1-----|
|*--5--------5-----0--------|--3--------3----------3--|
|*--------5--------------1--|-----0--3-------3--0-----|
|---3--6--------------------|--1----------------------|
|---------------------------|-------------------------|


  E  E  E  E  E  S S E  E     E  E  E  Q    E  E  E   
-------------------3----1--|-------------------------|
--1-----------1------------|----------------------1--|
--2--------2--1------------|--5----------------3-----|
--------1--------3---------|--------0--6----3--------|
--0--3---------------3-----|-------------------------|
---------------------------|--4--6-------------------|


  E  E  E  E  E  E  E  E     E  E  E  Q    E  E  E     E  E  E  Q    Q    E   
--------------------1--3--|-------------------------|--3---------------------|
-----------4--3--4--------|--3-----4--3-------------|--4--------4------------|
--5-----0--5-----0--------|--3--------3-------3-----|-----0--3-------3----0--|
-----------------------1--|-----0--3-------3-----0--|--1---------------------|
--3--6--------------------|--1----------------------|------------------------|
--------------------------|-------------------------|------------------------|


  E  E  E  Q    E  E  E     E  S S E  E  E  S S E  E   
----------------------3--|--3---------3--3---------3--|
--4--------4-------6-----|-------6------------6-------|
-----0--3-------5--------|-----0------------0---------|
--1----------------------|----------------------------|
-------------------------|----------------------------|
-------------------------|--4------x-----4------x-----|


  E  E  E  E  E  E  E  E     E  S S E  E  E  S S E  E   
-----------------------1--|--3---------3--3------------|
--1--------------4--------|-------6------------6----3--|
-----0-----3--------------|-----5------------5---------|
--------------------------|----------------------------|
--------------------1-----|--3------------3------------|
--4-----4-----4-----------|---------x------------x-----|

                           FIRST ENDING
  E  E  E  E  E  E  E  E     E  S S E  E  E  S S E  E   
--------------------------|----------------------------|
-----------------4-----3--|-------------------------4--|
--5--------3--------------|--5---------5--5----7-------|
-----5--------------------|-------6--------------------|
--3-----3-----3-----3-----|-----6------------6---------|
--------------------------|--4------x-----4------x-----|


  E  S S E  E  E  S S E  E     E  S S E  E  E  S S E  E   
-------------------------1--|----------------------------|
--4------------1----4-------|--4---------3------------3--|
-------1----3---------------|---------------4------------|
----------------------------|-------5------------5-------|
-----3------------3---------|-----5------------5---------|
--1------x-----1------x-----|--3------x-----3------x-----|

                        SECOND ENDING
  H.           E  E       E  S S E  E  E  S S E  E   
--3-------------------||---------------3------------|
--3-------------------||------------4------------4--|
--3------------------*||--5-------------------------|
---------------------*||-------6------------6-------|
---------------2--4---||-----6------------6---------|
--3-------------------||--4------x-----4------x-----|


  E  S S E  E  E  E  E  E     E  E  E  E  E  E  E  E     H.           Q     
------------------------3--|--------------------------|--------------------|
--6------------3--4--6-----|--3-----------------------|--------------------|
------------3--------------|-----------------------5--|--5------------3----|
-------5-------------5-----|-----5-----5-----5--------|--5-----------------|
-----5---------------------|--3-----------3-----------|--3-----------------|
--3------x-----3-----------|--------x-----------x-----|--------------------|


  E  S S E  E  E  E  E  E     E  S S E  E  E  S S E  E   
---------------------------|----------------------------|
---------------------------|------------4--8----6----4--|
--5---------5--------------|--5----7--------------------|
-------8-------------6-----|----------------------------|
-----6------------6-----6--|-----6------------6---------|
--4------x-----4-----------|--4------x-----4------x-----|


  E  S S E  E  E  S S E  E     Q    E  E  E  E  E  E   
--1----------------------1--|-------------------------|
---------------3----4-------|--4-------4--4--3--------|
-------0----3---------------|-------------------5--3--|
-----0------------0---------|-------------------------|
----------------------------|--3----------3-----------|
--3------x-----3------x-----|-------x-----------------|


  Q    E  E  E  E  E  E     Q    Q    Q    E  E     W                 
-------------------------|--1---------3----1-----|-------------------|
--4-------------------4--|--------------------4--|--4----------------|
----------------5--5-----|-----------------------|--0----------------|
-------------------------|-----------------------|--1----------------|
----------6--------------|-----------------------|-------------------|
--4----x-----4-----4-----|--1----x----1----------|-------------------|


  Q    E  E  E  E  E  E       E.  S E  E  Q    E  E     Q    E  E  E.  E.  E   
-------------------0--2--||---4---4----2-------------|----------2--2---7---4--|
--3-------2--2--4--------||---2-----------2----------|------------------------|
-------------------------||*--------------2----------|------------------------|
--0----------------------||*----------------------2--|------------------------|
-------------------------||---0-----------0----0-----|--2----x-----2----------|
-------x-----------------||---------x----------------|------------------------|

                         FIRST ENDING
  E.  S E  E  Q    Q       E.  S E  E  E  E  E  E     E.  S E  E  Q    E  E   
--2---2----4------------|--0-----------------------|--4---4----2-------------|
--------------0----4----|------0----------4--5--7--|--2-----------2----------|
-----------6------------|--6--------6--6-----------|--------------2----------|
------------------------|--------------------------|----------------------2--|
------------------------|--4-----x-----4-----------|--0-----------0----0-----|
--4-----x-----4---------|--------x-----------------|--------x----------------|


  E.  S E  E  E  E  E  E     E.  S E  E  E.  S Q     
-----------0--------------|-----------0-------------|
--------------4--2--0--2--|--4-----------------7----|
--------------------------|-----------6-------------|
------4-------------------|------------------6------|
--2-----------2-----------|------6------------------|
--------x-----------------|--4-----x-----4----------|

                             SECOND ENDING
  E.  S E  E  E  E  E  E       E.  S E  E  E  S E  S E   
--4------------------------||--0----------------0-------|
-----------------4--5--7---||------0-------7---------4--|
-----------6--6-----------*||--6--------6---------------|
------6-------------------*||---------------------------|
--4-----------4------------||--4-----------4-------4----|
--------x------------------||--------x--------x---------|


  Q    E  E  E  E  E  E     E.  S E  E  Q    Q       E.  S E  E  H         
----------------------0--|--0----------------2----|-----------------------|
--2-------2-----2--4-----|------4----2--4---------|--7-----------4--------|
-------------------------|------------------------|-----------------------|
-------------------------|------4-----------------|-----------6-----------|
--0----------0-----0-----|--2-----------2---------|------6----------------|
-------x-----------------|--------x---------------|--4-----x-----4--------|


  W                  
-------------------||
--6----------------||
-------------------||
--6----------------||
--4----------------||
-------------------||




Duration Legend
---------------
W - whole
H - half
Q - quarter
E - 8th
S - 16th
T - 32nd
X - 64th
. - note dotted
|-n-|  - n-tuplets


Tablature Legend
----------------
L - tied note
x - dead note
g - grace note
(n) - ghost note
> - accentuded note
NH - natural harmonic
AH - artificial harmonic
TH - tapped harmonic
SH - semi harmonic
PH - pitch harmonic
h - hammer on
p - pull off
b - bend
br - bendRelease
pb - preBend
pbr - preBendRelease
brb - bendReleaseBend
\n/ - tremolo bar dip
\n - tremolo bar dive
-/n - tremolo bar Release up
/n\ - tremolo bar inverted dip
/n - tremolo bar return
-\n - tremolo bar Release down
S - shift slide
s - legato slide
/ -  slide into from below or out of upwards
\ -  slide into from above or out of downwards
~ - vibrato
W - wide vibrato
tr - trill
TP - tremolo picking
T - tapping
S - slap
P - pop
< - fade in
^ - brush up
v - brush down

        
Comments

@BigHeadClan (April 07, 2013 at 3:41 AM)

So faaaast ><


@Patapooka (April 14, 2013 at 5:19 AM)

DIOS thanks!!!!! :D im so happy ^^ THANKS!