Gametabs
Home
Tabs
Random

Longing for Home

Average rating: 5.000

2 ratings

Composer:

Tabber:

Style:

Instrument:

Created: March 11, 2022 at 12:00 AM

            Longing for Home
Tomb Raider                              
Composed by Nathan McCree
Arranged by William Geesdorf


EG#DGBE Tuning (Standard tuning but with the 5th string tuned down a half step to Ab\G#)
(Capo 3)


      E  E       E  E  E  E  E  E     E  E  E  E  E  E     E  E  E  E  E  E   
E ||--------||---------------------|--------------------|--------------------|
B ||--------||---0--------0--------|--0--------0--------|--------------------|
G ||--0-----||*-----0--------0-----|-----0--------0-----|--3--0-----3--0-----|
D ||-----4--||*--------4--------4--|--------4--------4--|--------4--------4--|
G#||--------||---------------------|--------------------|--2-----------------|
E ||--------||---0-----------------|--0-----------------|--------------------|


  E  E  E  E  E  E       E  E  E  E  E  E     E  E  E  E  E  E   
---------------------||--2-----------------|--0--------------3--|
---------------------||-----------0--------|-----------0--------|
--3--0-----3--0-----*||--------0-----0-----|--------0-----0-----|
--------4--------4--*||-----2-----------2--|-----2--------------|
--2------------------||--------------------|--------------------|
---------------------||--0-----------------|--0-----------------|


  E  E  E  E  E  E     E  E  E  E  E  E     E  E  E  E  E  E   
--2--------0--------|-----------------3--|--2-----------------|
--------------------|-----------0--------|-----------0--------|
--------3-----3-----|--------3-----3-----|--------0-----0-----|
-----4-----------4--|-----4--------------|-----2-----------2--|
--2-----------------|--2-----------------|--------------------|
--------------------|--------------------|--0-----------------|


  E  E  E  E  E  E     E  E  E  E  E  E     E  E  E  E  E  E   
--0--------------3--|--2-----------------|--------------------|
-----------0--------|-----------2--------|-----------2--------|
--------0-----0-----|--------3-----3-----|--------3-----3-----|
-----2--------------|-----4-----------4--|-----4-----------4--|
--------------------|--2-----------------|--2-----------------|
--0-----------------|--------------------|--------------------|


  E  E  E  E  E  E     E  E  E  E  E  E     E  E  E  Q.      
--0--------0--------|--------------------|------------------|
--------------------|--3--------3--------|------------------|
--------5-----5-----|--------5-----5-----|--5-----5--0------|
-----5-----------5--|-----5-----------5--|-----5------------|
--4-----------------|--4-----------------|--4---------------|
--------------------|--------------------|------------------|


  E  E  E  E  E  E     E  E  E  E  E  E     E  E  E  Q    E   
-----------0--------|--2--------2--------|-------------------|
--------0-----0-----|--------3-----3-----|-----------3-------|
-----0-----------0--|-----2-----------2--|--------2-------2--|
--------------------|--------------------|-----4-------------|
--4-----------------|--4-----------------|--4----------------|
--------------------|--------------------|-------------------|


  E  E  E  E  E  E     H.              Q    E  E  E  E     Q    E  E  E  E   
--0-----2--3--------|---------------|--2----------------|--0-------------3--|
--------------0-----|---------------|--0----------------|-------------------|
-----0-----------0--|---------------|----------0-----0--|----------0--------|
--------------------|---------------|-------2-----2-----|-------2-----2-----|
--4-----------------|--4------------|-------------------|-------------------|
--------------------|---------------|--0----------------|--0----------------|


  Q.     Q.        Q    E  E  E  E     Q    E  E  E  E     Q    E  E  E  E   
--2------0------|----------------3--|--2----------------|--0-------------3--|
----------------|-------------------|--0----------------|-------------------|
--3-------------|-------0--3--0-----|----------0-----0--|----------0--------|
----------------|-------------------|-------2-----2-----|-------2-----2-----|
--4-------------|--4----------------|--1----------------|--1----------------|
----------------|-------------------|-------------------|-------------------|


  Q    E  E  E  E     Q.        E  E  E  E  Q       E  E  E  E  Q     
--2----------------|---------|--0----------------|-------------------|
--2----------------|---------|-------------------|--3----------------|
----------3-----3--|---------|-----2--2--2--0----|-----2--2--2--0----|
-------4-----4-----|---------|-------------------|-------------------|
-------------------|---------|--4----------------|--4----------------|
--2----------------|--3------|-------------------|-------------------|


  E  E  E  E  Q       E  E  E  E  Q       E  E  E  E  Q       E  E  E  E  Q     
-------------------|--------------0----|--2----------------|-------------------|
-----0--0--0-------|-----0--0--0-------|-------------------|--------------3----|
--5--------0-------|--------------0----|-----2--2--2--0----|-----2--2--2--0----|
--------------5----|-------------------|--0----------------|--0----------------|
--4----------------|--4----------------|-------------------|-------------------|
-------------------|-------------------|-------------------|-------------------|


                                      ^                             
  E  E  E  E  Q       H.              H.              H.            
--0-----2--3-------|---------------|--0------------|--L------------|
-----0--0--0-------|---------------|--0------------|--L------------|
--------------0----|---------------|--0------------|--L------------|
-------------------|---------------|--2------------|--L------------|
--4----------------|--4------------|--3------------|--L------------|
-------------------|---------------|--0------------|--0------------|


  H.              H.              E  E  E  E  E  E     E  E  E  E  E  E   
--0------------|--L------------|--------------------|--------------------|
---------------|---------------|--0--------0--------|--0--------0--------|
--3------------|--L------------|-----0--------0-----|-----0--------0-----|
---------------|---------------|--------4--------4--|--------4--------4--|
--2------------|--2------------|--------------------|--------------------|
---------------|---------------|--0-----------------|--0-----------------|


                                            ^                              
  E  E  E  E  E  E     E  E  E  E  E  E     H.              H.             
--------------------|--------------------|--0------------|--L------------||
--------------------|--------------------|--0------------|--L------------||
--3--0-----3--0-----|--3--0-----3--0-----|--0------------|--L------------||
--------4--------4--|--------4--------4--|--4------------|--L------------||
--2-----------------|--2-----------------|--3------------|--L------------||
--------------------|--------------------|--0------------|--L------------||




Duration Legend
---------------
W - whole
H - half
Q - quarter
E - 8th
S - 16th
T - 32nd
X - 64th
. - note dotted
|-n-|  - n-tuplets


Tablature Legend
----------------
L - tied note
^ - brush up
        
Comments

No comments yet