Gametabs
Home
Tabs
Random

Main Theme

Average rating: 5.000

5 ratings

Composer:

Tabber:

Style:

Instrument:

Created: March 03, 2013 at 12:00 AM

            Title: Main Theme
SubTitle: Tomb Raider IV - The Last Revelation
Artist: Peter Connely
Tabber: Mitch Jackson
Tempo = 55
T/S = 4/4

Original Soundtrack Video:

https://www.youtube.com/watch?v=CIS55uFXRVw

            
     ^           ^             ^           ^             ^                            ^
     Q     Q     Q     Q       Q     Q     Q     Q       E  E  E  E  E  E  E  E       Q     E  E  E  E  S S S S   
E |--11----10----6-----4----|-------------------------|--8--------10-6-----10-6----|--8-----------6--4------------|
B |--8-----8-----4----------|--4-----3----------------|--8-------------------------|--8-----------------8-6-4-----|
G |--8-----7----------------|--0-----------3----------|-----8----------------------|--------5--7--------------7---|
D |--10----10----6----------|--1-----------5-----6----|--10----12-------8----------|--10----------6---------------|
A |-------------------------|--3-----------6----------|----------------------------|------------------------------|
E |--------------4----------|--------------4----------|--8-----------4-------------|--8-----------4---------------|
     mf
                                                   
     ^           ^                ^           ^                ^           ^                 ^           ^     
     S S Q.      S S Q.           S S Q.      S S Q    E       S S Q.      S S E  Q          S S Q.      S S Q.          
  |-(3)------------------------|-(3)------------------------|-----------------------------|--3-L-L---------------------|
  |--4----------(4)------------|--4----------(4)------------|--4-L-L------(4)-----6-------|-------------(4)------------|
  |--5-----------5-------------|--5-----------5-------------|--5-----------5--------------|--5-----------5-------------|
  |--5-----------6-------------|--5-----------6--------5----|--5-----------6--------------|--5-----------6-------------|
  |--3-3(x)------6-------------|--3-3(x)------6-------------|--3-3(x)------6--------------|--3-3(x)------6-------------|
  |--------------4-4(x)--------|--------------4-4(x)--------|--------------4-4(x)---------|--------------4-4(x)--------|


     ^            ^                 ^               ^                ^                             ^           ^   
     S S E  E  E  S S Q     E       T T T T Q.      S S Q.           H           S S Q.            H           Q.      E
  |-(3)-----6--4--3--------------|--------------------------------|-(5)-------------------------|---------------------------|
  |--4----------------------6----|--3-4-3-4-3---------------------|--7--------------------------|--3-----------3------------|
  |--5---5--------5--------------|--5---------------5-------------|--7--------------------------|--2-----------3-------2----|
  |--5------------6--------------|--5---------------6-------------|--7--------------------------|--0------------------------|
  |--3-3(x)----------------------|--3---3--(x)------6-------------|--5--------------------------|---------------------------|
  |---------------4-4(x)---------|------------------4-4(x)--------|-------------(5)(x)L---------|---------------------------|
                                                                                                   mp
                             FERMATA
     ^               ^              ^
     H           T T Q.      S      Q.      S T T Q.      S       T T T T T T T T T T T T E  H                S S S S S S S S  S S S S S S S S  
  |------------------------------|-----------------------------|----------------------------(3)------------|----11--10--8--------11--10--8-------|
  |--3---------------------------|-----------------------------|----------------------------(4)------------|--8---8---8---8-11-8---8---8---8-11--|
  |--5-----------5-3-2------(x)--|--2L------L-2-0--------------|-----------------------------0-------------|-------------------------------------|
  |-(0)--------------4------(x)--|--0L------L-----4-------1----|--0h1p0---0h1p0---0h1p0---0--0-------------|-------------------------------------|
  |------------------5------(x)--|----------------5------------|--------3-------3-------3------------------|-------------------------------------|
  |------------------5------(x)--|-----------------------------|-----------------------------3-------------|--8----------------------------------|
                     mf      mp
                                                                                

     S S S S S S S S  S S S S S S S S      E  E    S S S S E  E  Q          E E    E  S S S S Q.           S S S S S S S S E  E  E  E                                                 
  |----11--10--8--------11--10--8-------|-------10g11--10--------6-------|------------------------------|----------10--11--------6--4----|
  |--8---8---8---8-11-8---8---8---8-11--|------------8---11--------------|-------8g9--8-----------------|------------8---8---------------|
  |-------------------------------------|--------------------------------|------------------------------|--------12----------------------|
  |-------------------------------------|-----10--------------6----------|-----10-------10--5-6---------|----8-10-------------6----------|
  |-------------------------------------|--------------------------------|------------------------------|--------------------------------|
  |--8----------------------------------|--8---------------4-------------|--8-------------4-------------|--8---------------4-------------|
                                           mf
                                                                                
                                  ^                            |-3-| |-3-| |-3-| |-3-| |-3-| |-3-| |-3-| |-3-|      ^           ^    
     E  E  E  E  E  E  E  E       H.                E  E       S S S S S S S S S S S S S S S S S S S S S S S S      Q     Q     Q     Q                                              
  |----------------------------|--11----------------13-10---|----------------------------------------------------|--11----10----6-----4-------|
  |--------3--4--6--8--9--11---|--8-------------------------|----------------------------------------------------|--8-----8-----4-------------|
  |-----5----------------------|--8-------------------------|--8-7-5-7-5-3-5-3---3-------------------------------|--8-----7-------------------|
  |----------------------------|--10------------------------|------------------6---6-5-6-5-3-5-3---3-------------|--10----10----6-------------|
  |--3-----------6-------------|----------------------------|------------------------------------6---6-5-6-5-3---|----------------------------|
  |----------------------------|----------------------------|----------------------------------------------------|--------------4-------------|
                                                               mp                                                   mf

     ^           ^                                             ^           ^                ^           ^                                                                                   
     Q     Q     Q     Q          Q     Q     Q     E  E       Q     Q     Q     Q          Q     Q     Q     Q  
  |----------------------------|--11----10----6-----4-------|----------------------------|----------------------------|
  |--4-----3-------------------|--8-----------4-------------|--4-----3-------------------|--4-----3-------------------|
  |--0-----------3-------------|----------------------------|--0-----------3-------------|--0-----------3-------------|
  |--1-----------5-----6-------|--10------------------------|--1-----------5-----6-------|--1-----------5-----6-------|
  |--3-----------6-------------|----------------------------|--3-----------6-------------|--3-----------6-------------|
  |--------------4-------------|--------------4-------------|--------------4-------------|--------------4-------------|
                                  mp

     ^
     W  
  |---------------------------||
  |---------------------------||
  |--0------------------------||
  |---------------------------||
  |--3------------------------||
  |--3------------------------||

        
Comments

@karathrow (March 04, 2013 at 7:56 AM)

Wow that sounds beautiful but it looks really tough.


@Choogly (March 05, 2013 at 7:30 AM)

This is gorgeous. Very unique sounding chords too. I think this is my favorite tab by you so far, and that's saying something.