Gametabs
Home
Tabs
Random

Toejam Slowjam

Average rating: 5.000

1 ratings

Composer:

Tabber:

Style:

Instrument:

Created: September 24, 2013 at 12:00 AM

            (h) Hammer On  (p) Pull Off  (x) Quick Muted Note for Funky Ryhthm

G|-----------------------------------------------------------------------------------------
D|------x4--6-------------4--6--6-----------------x4--6-------------4--6--6----------------
A|----------------------------------x4--6------------------------------------x4--6---------
E|--4-----------x2--4-----------------------7--4----------x2--4---------------------7--4---



G|------------------------------------------------------------------------------------------------
D|-x4--6---------------4--6--6-----------------------------------6--4-----------------------------
A|------------------------------x4--6----------------------------------6--5--4-----4--------------
E|----------x2--x4----------------------7--4---x2--4----4--7--4-----------------7-----7--4--7--4--



G|--6--6--4---x6--6--4------------7--6--4---------------------
D|----------------------x4--4--4-------------x3--4--x3--4--6--
A|------------------------------------------------------------
E|------------------------------------------------------------



G|--6--6--4---x6--6--4---------13--11------------------------------------
D|----------------------x4--4----------13--12--11--9---------------------
A|-------------------------------------------------------------9h11--11--
E|----------------------------------------------------9h10h11------------



G|--6--6--4---x6--6--4----------------7--6--4----------------
D|-----------------------x4--4--4--4-----------x3--4--x3-----
A|--------------------------------------------------------6--
E|-----------------------------------------------------------



G|--6--6--4---x6--6--4----------------------13--11------------------------------------
D|--------------------------6p4---------------------13--12--11--9---------------------
A|-------------------------------6--5--4------------------------------------9h11--11--
E|-----------------------------------------------------------------9h10h11------------
        
Comments

No comments yet