Gametabs
Home
Tabs
Random

Renkin Jutsu

Average rating: 5.000

1 ratings

Composer:

Tabber:

Style:

Instrument:

Created: September 13, 2013 at 12:00 AM

            Title: Renkin Jutsu
SubTitle: To Aru Majutsu No Index
Artist: Iuchi Maiko
Tabber: Mitch Jackson
Tempo = 71
T/S = 4/4



      E  E  E  E  E  E  E  E       E  E  E  E  E  E  E  E       E  E  E  E  E  E  E  E       E  E  E  E  E  E  E  E     
D ||--------------0-------------|--------------0------------||--1-----------0-------------|--------------0------------||
A ||--------3-------------------|--------3------------------||--------3-------------------|--------3------------------||
F ||o----2-----2-----2--0-------|-----2-----2-----2--0-----o||o----2-----2-----2--0-------|--3--2-----2-----2--0-----o||
C ||o---------------------------|--------------------------o||o---------------------------|--------------------------o||
G ||-----------------------3----|-----------------------3---||-----------------------3----|-----------------------3---||
C ||--0-------------------------|--0------------------------||--0-------------------------|--0------------------------||



     E  E  E  E  E  E  E  E       E  E  E  E  E  E  E  E       E  E  E  E  E  E  E  E       E  E  E  E  E  E  E  E     
  |--1-----------0-------------|--------------0-------------|--------------0-------------|--------------0-------------|
  |--------3-----1-------------|--3-----3-------------------|--1-----3-------------------|--------3-------------------|
  |-----2-----2-----2--0-------|--4--2-----2-----2--0-------|--0--2-----2-----2--0-------|--2--2-----2-----2--0-------|
  |----------------------------|----------------------------|----------------------------|--3-------------------------|
  |-----------------------3----|-----------------------3----|-----------------------3----|-----------------------3----|
  |--0-------------------------|--0-------------------------|--0-------------------------|--0-------------------------|


                                  ^                                                         ^
     E  E  E  E  E  E  E  E       E  E  E  E  E  E  E  E       E  E  E  E  E  E  E  E       E  E  E  E  E  E  E  E     
  |--1-------------------------|--1-----------0-------------|--1-------------------------|--1-----------0-------------|
  |--------3-----1-------------|--3-----3-------------------|--------3-----1-------------|--3-----3-------------------|
  |-----2-----2-----2--0-------|--3--2-----2-----2--0-------|-----2-----2-----2--0-------|--4--2-----2-----2--0-------|
  |----------------------------|----------------------------|----------------------------|----------------------------|
  |-----------------------3----|-----------------------3----|-----------------------3----|-----------------------3----|
  |--0-------------------------|--0-------------------------|--0-------------------------|--0-------------------------|



     E  E  E  E  E  E  E  E       E  E  E  E  E  E  E  E       E  E  E  E  E  E  E  E       E  E  E  E  E  E  E  E     
  |--1-----------5-------------|--3-----------1-----3-------|--3-----------0-------------|--------------0-------------|
  |--------3-----5-------------|--0-----3-------------------|--1-----3-------------------|--3-----3-------------------|
  |-----2-----2--5-----0-------|-----2-----2-----2--0-------|-----2-----2-----2--0-------|-----2-----2-----2--0-------|
  |-----------------7----------|----------------------------|----------------------------|--3-------------------------|
  |-----------------------3----|-----------------------3----|-----------------------3----|-----------------------3----|
  |--0-------------------------|--0-------------------------|--0-------------------------|--0-------------------------|



      E  E  E  E  E  E  E  E       E  E  E  E  E  E  E  E       E  E  E  E  E  E  E  E       E  E  E  E  E  E  E  E     
  ||--5-----------8-------------|--7-----------5------------||--5-----------10------------|--------------8-------------|
  ||--6-----6-----------10------|--------8-----------8------||--6-----6-----------10------|--5-----8-----------8-------|
  ||o----7-----7-----7-----7----|-----7-----7-----7-----7--o||-----7-----7-----7-----7----|-----7-----7-----7-----7----|
  ||o---------------------------|--------------------------o||----------------------------|----------------------------|
  ||----------------------------|---------------------------||----------------------------|----------------------------|
  ||--0-----------0-------------|--5------------------------||--0-----------0-------------|--5-------------------------|



     E  E  E  E  E  E  E  E       E  E  E  E  E  E  E  E       E  E  E  E  E  E  E  E       E  E  E  E  E  E  E  E     
  |--5-------------------------|--5-------------------------|-----------5--------5-------|--------------5-------------|
  |--5-----5-----6-------------|--------5-----------5-------|--6-----------5-------------|--------8--------------5----|
  |-----5-----5-----5----------|-----5-----5-----6-----6----|--------7-----5--7-----7----|-----7-----7-----7--7-------|
  |----------------------------|----------------------------|-----7----------------------|--8-------------------------|
  |----------------------------|----------------------------|--5-----------5-------------|----------------------------|
  |--0-----------------3--5----|--7-----------7-------------|----------------------------|--5-------------------------|



     E  E  E  E  E  E  E  E       E  E  E  E  E  E  E  E       E  E  E  E  E  E  E  E       E  E  E  E  E  E  E  E     
  |--------------5-----5-------|--------------5-------------|--8-----------10----5-------|--5-----------5-------------|
  |--6-------------------------|--------8-----------8-------|--------8-------------------|--------8-----------8-------|
  |--------7-----5--7-----7----|-----7-----7-----7-----7----|-----7-----7-----7-----7----|-----7-----7-----7-----7----|
  |-----7-----7----------------|--9-------------------------|----------------------------|----------------------------|
  |--5-----------5-------------|----------------------------|----------------------------|--0-------------------------|
  |----------------------------|--5-------------------------|--5-----------5-------------|----------------------------|



      E  E  E  E  E  E  E  E       E  E  E  E  E  E  E  E       W   
  ||--------------0-------------|--------------0------------||--L------------------------||
  ||--------3-------------------|--------3------------------||--L------------------------||
  ||o----2-----2-----2--0-------|-----2-----2-----2--0-----o||--L------------------------||
  ||o---------------------------|--------------------------o||---------------------------||
  ||-----------------------3----|-----------------------3---||--L------------------------||
  ||--0-------------------------|--0------------------------||---------------------------||


        
Comments

No comments yet