Gametabs
Home
Tabs
Random

Odayaka na You

Average rating: 5.000

5 ratings

Composer:

Tabber:

Style:

Instrument:

Created: July 31, 2013 at 12:00 AM

            Title: Odayaka na You
SubTitle: To Aru Majutsu no Index
Artist: Iuchi Maiko
Tabber: Mitch Jackson
Tempo = 73
T/S = 4/4

TUNING = Drop 'D'

     
     E  E  E  E  H                E  E  E  E  H                E  E  E  E  H                E  E  E  Q     E  Q        
E |-----------0L-L-------------|-----------0L-L-------------|-----------0L-L-------------|-----------0----------------|
B |--------3-------------------|--------3-------------------|--------3-------------------|--------3--------3----------|
G |-----2----------------------|-----3----------------------|-----2----------------------|-----3--------------3-------|
D |----------------------------|----------------------------|----------------------------|----------------------------|
A |----------------------------|----------------------------|----------------------------|----------------------------|
D |--0-------------------------|--5-------------------------|--0-------------------------|--5-------------------------|

              g                                                              g
     E  E  E  T E  E  T T S E  E       E  E  E  E  H                E  E  E  T E  E  T T S E  E       E  E  E  Q     E  E  E     
  |----------------3--2h3p2-0-------|-----------0L-L-------------|----------------3--2h3p2----5----|--0--------0--------2--3----|
  |--------3--5s7--------------3----|-----3--3-------------------|--------3--5s7-----------3-------|--------3--------3----------|
  |-----2---------------------------|--3--3----------------------|-----2---------------------------|-----3----------------------|
  |---------------------------------|----------------------------|---------------------------------|----------------------------|
  |---------------------------------|----------------------------|---------------------------------|----------------------------|
  |--0------------------------------|--5-------------------------|--0------------------------------|--5-------------------------|

                                                    g                           g       g
     E  E  E  Q     Q     E       E  E  E  Q     E  T E  E       E  E  E  Q     T Q     T E       E  E  E  Q     Q.          
  |--5--------5-----10----3----|-----------0-------------2----|--3-----3--3-----3s5------------|-----------0----------------|
  |--------3-------------------|-----------3--------3s5-------|--------3--3-------------5s7----|--------3--------3----------|
  |-----2----------------------|--------0--------0------------|--------------------------------|-----2----------------------|
  |----------------------------|-----2------------------------|-----1--------------------------|----------------------------|
  |----------------------------|------------------------------|--------------------------------|----------------------------|
  |--4-------------------------|--2---------------------------|--1-----------------------------|--0-------------------------|

                                                                                                     g
     E  E  E  Q     E  Q          E  E  E  Q     Q     E       E  E  E  Q     Q.            E  E  E  T E  E  T T S E  E     
  |-----------0----------------|-----------0----------------|-----------0----------------|----------------3--2h3p2-0-------|
  |--------3--------3----------|--------3--------3----------|--------3--------3----------|--------3--5s7--------------3----|
  |-----3--------------3-------|-----2-----------------2----|-----3----------------------|-----2---------------------------|
  |----------------------------|----------------------------|----------------------------|---------------------------------|
  |----------------------------|----------------------------|----------------------------|---------------------------------|
  |--5-------------------------|--0-------------------------|--5-------------------------|--0------------------------------|

                                           g  
     E  E  E  Q     Q.            E  E  E  T E  E  T T S E  E       E  E  E  Q     E  E  E       E  E  E  Q     Q     E     
  |-----------0----------------|----------------3--2h3p2----5----|--0--------0--------2--3----|--5--------5-----10----3----|
  |-----3--3--------3----------|--------3--5s7-----------3-------|--------3--------3----------|--------3-------------------|
  |--3--3----------------------|-----2---------------------------|-----3----------------------|-----2----------------------|
  |----------------------------|---------------------------------|----------------------------|----------------------------|
  |----------------------------|---------------------------------|----------------------------|----------------------------|
  |--5-------------------------|--0------------------------------|--5-------------------------|--4-------------------------|

                       g                           g                               
     E  E  E  Q     E  T E  E       E  E  E  Q     T Q     E       E  E  E  Q     E  Q          E  E  E  E  E  T T S E  E
  |-----------0-------------2----|--3-----3--3-----3s5-----2----|-----------2----------------|-----------2--3--2h3p2-0-------|
  |-----------3--------3s5-------|--------3--3------------------|--------3--------3----------|--------3-----------------3----|
  |--------0--------0------------|------------------------------|-----2--------------2-------|-----2-------------------------|
  |-----2------------------------|-----1------------------------|----------------------------|-------------------------------|
  |------------------------------|------------------------------|----------------------------|--3----------------------------|
  |--2---------------------------|--1---------------------------|--0-------------------------|-------------------------------|
          

     E  E  E  E  H                E  E  E  E  E  T T S E  E       S S E  E  Q     E  E  E       E  E  E  E  E  T T S E  E     
  |--3--------0L-L-------------|-----------3--5--3h5p3-2--3----|--3s5-------2----------------|-----------5--7--5h7p5-4--5----|
  |--------3-------------------|--------3----------------------|---------3--------3-----3----|--------3----------------------|
  |-----0----------------------|-----0-------------------------|------2--------------2-------|-----2-------------------------|
  |----------------------------|-------------------------------|-----------------------------|-------------------------------|
  |--2-------------------------|--1----------------------------|--0--------------------------|--3----------------------------|
  |----------------------------|-------------------------------|-----------------------------|-------------------------------|

                                                 g               g          g                     ^
     E  E  E  Q     E  Q          Q     Q.       T Q.            T Q.       T Q.       Q          W                          
  |--10-------0-----0----------|------------------------------|--------------------------------|--0L------------------------|
  |----------------------------|--------0---------------------|--------------------------------|--2L------------------------|
  |-----0--------------0-------|--2-----0--------4s6----------|--6s7--------7s9--------L-------|--2L------------------------|
  |--------12------------------|-----------------5s7----------|--7s9--------9s11-------L-------|----------------------------|
  |----------------------------|--0-----0---------------------|--------------------------------|--0L------------------------|
  |--9-------------------------|------------------------------|--------------------------------|----------------------------|

                    g               g                                            
     H           E  T E  E  E       T E  E  E  Q     Q.            E  E  E  Q     E  Q          E  E  E  Q     Q     E
  |--L-----------L--2s3--2-------|-------------0----------------|-----------0----------------|-----------0----------------|
  |--L-----------L----------3----|--3s5-----3--------3----------|--------3--------3----------|--------3--------3----------|
  |--L-----------L---------------|-------2----------------------|-----3--------------3-------|-----2-----------------2----|
  |------------------------------|------------------------------|----------------------------|----------------------------|
  |--L-----------L---------------|------------------------------|----------------------------|----------------------------|
  |------------------------------|--0---------------------------|--5-------------------------|--0-------------------------|

                                  |-Pinch Harmonics-|                N.H                     |-Pinch Harmonics-| 
     E  E  E  Q     Q.            E  E  E  Q     Q.            E  E  E  Q     Q.            E  E  E  Q     E  Q
  |-----------0----------------|-------<0><2>---------------|-------<12>-----------------|-------<0><2>---------------|
  |--------3--------3----------|----------------<3>---------|-----------11---------------|----------------<3>---------|
  |-----3----------------------|----<2>---------------------|-----------------12---------|----<2>------------<2>------|
  |----------------------------|----------------------------|-----12---------------------|----------------------------|
  |----------------------------|----------------------------|--10------------------------|----------------------------|
  |--5-------------------------|--0-------------------------|----------------------------|--0-------------------------|

                                  N.H
     E  E  E  Q     Q.            W                            W
  |----------------------------|----------------------------|----------------------------||
  |-----------11---------------|-<7>L-----------------------|--L-------------------------||
  |--------12-------12---------|-<7>L-----------------------|--L-------------------------||
  |-----12---------------------|----------------------------|----------------------------||
  |--10------------------------|----------------------------|----------------------------||
  |----------------------------|--0L------------------------|--L-------------------------||

        
Comments

@Choogly (July 31, 2013 at 11:18 PM)

Beautiful.