Gametabs
Home
Tabs
Random

only my railgun (animelodies1 version)

Average rating: 5.000

1 ratings

Composer:

Tabber:

Style:

Instrument:

Created: August 05, 2016 at 12:00 AM

            6th string: D
5th string: G

Capo 4

     S S E  E  S  E.  S S E  S  S    E  S S E  S  E.  S S E  S  S  
E||-------------------------------|-------------------------------|
B||-------------------------------|-------------------------------|
G||-------------------------------|-------------------------------|
D||-------------------------------|-------------------------------|
G||--4-4-4--4--4------4-4-4--4----|-----4-4-4--4------4-4-4--4----|
D||--2-2-2--2--0h-2---2-2-0--0h-2-|--L--2-2-2--0h-2---2-2-0--0h-2-|


  E  S S E  S  E.  S S E  S S     H        E  E  E  E   
-------------------------------|--------------3--2-----|
-------------------------------|--------------------3--|
-------------------------------|-----------------------|
-------------------------------|-----------------------|
-----4-4-4--4------4-4-4--4----|-----------------------|
--L--2-2-2--0h-2---2-2-0--0-2h-|--x--------------------|


  E  S S E  E  E  S S E  E     E  S S E  E  E  E  E  E   
----------------------------|------------------------5--|
--3--5-5----3--3--5-5----3--|-----5-5----5--5--7--8-----|
--0---------0------------0--|--7---------5--------------|
---------2------------2-----|---------5-----------------|
----------------------------|--5------------------4-----|
--2-------------------------|---------------------------|


  E  E  E  E   E  E  E  E     E  S E.  E  E  E  E  E   
---------------8-----5-----|--5----5---7-----3--2-----|
--7-----------10-----7-----|--7----7---8-----0-----3--|
--------7------------------|-----0--------------------|
-----0-----0------0-----0--|--------------------------|
---------------------------|--0-----------0-----------|
--0------------------------|--------------------4-----|


  E  S S E  E  E  S S E  E     E  S S E  E  E  E  E  E   
----------------------------|------------------------5--|
--3--5-5----3--3--5-5----3--|-----5-5----5--5--7--8-----|
--0---------0--2---------0--|--7---------5--------------|
---------2------------0-----|---------5-----------------|
----------------------------|--5------------------4-----|
--2------------0------------|---------------------------|


  E  E  E  E  E  E  E  E     E  E  E  E  E  E  E  E   
-----------------------5--|--------------------------|
--5-----------5--7--8-----|--7-----------------------|
--5-----5-----------------|--------7-----4-----7-----|
-----5-----5--------------|-----4-----4-----4-----4--|
--------------------------|--4-----------------------|
--7-----------------------|--------------------------|


  E  S S E  E  E  S S E  E     E  S E.  E  E  E  E  E   
---------------2------------|-----0-0------------------|
-----5-5----8-----3-0----3--|--3--0-0---------------0--|
--7----------------------2--|--2-----------------2-----|
---------5------------0-----|-----------------2--------|
--5-------------------------|-----------2--4-----------|
---------------0------------|--2-----------------------|


  E  E  E  E  E  E  E  E     W                   E  E  E  E  E  E  E  E   
--------------------------|-------------------|--0-----------0-----0-----|
--------------0-----------|-------------------|-----------------------7--|
--1-----1--------2--1-----|-------------------|--------6--8-----8--------|
-----2-----------------2--|-------------------|-----6--------------------|
--------------------------|-------------------|--6-----------------------|
--2--------2-----------2--|--L----------------|--------------------------|


  E  E  E  E  E  E  E  E     E  E  E  E  E  E  E  E     E  E  E  E  Q    Q     
--------------------------|--4-----------4--5--4--2--|--4--------7--4---------|
--5-----------5--4--5--7--|--------------2-----------|-----7--5-----0---------|
--------4--6-----4--------|--------2--4--------------|------------------------|
-----4--------------------|-----2--------------------|------------------------|
--4-----------------------|--2-----------------------|--4---------------------|
--------------------------|--------------------------|--------------2----1----|


  E  E  E  E  E  E  E  E     E  E  E  E  E  E  E  E   
--0-----------0-----0--2--|--0-----------0-----0--2--|
-----------------4--------|-----------------4--------|
--------6-----------------|--------4-----------------|
-----6-----6--------------|-----4-----4--------------|
--6-----------2-----------|--4-----------1-----------|
--------------------------|--------------------------|


  E  E  E  E  E  E  E  E     Q    E  E  H           E  S E  S E  E  E  E  E   
--4-----------------------|----------------------|--4--4-4--4-4-----4--2-----|
--------2-----7--5--4--5--|----------------------|--2---------------2-----5--|
-----2-----2--4-----------|--8-------6--6--------|---------------2-----------|
--------------------------|-------6--------------|---------------------------|
--------------------------|--6-------------------|--2------------------------|
--4-----------6-----------|----------------------|---------------------------|


  E  E  E  S E.  E  E  S S    E  E  E  E  S S S E.  E     E  S E.  E  H         
-----------7-7---------7-7-|--7--5--4-----5-4----------|--------------0--------|
--4-----4-----------4------|-----------7--------7---5--|-----------------------|
--4-----4--------4---------|------------------4--------|--8----8---6-----------|
-----4---------------------|---------------------------|-----6-----------------|
--4------------------------|---------------------------|--6--------------------|
---------------------------|--6------------------------|-----------------------|


  E  S E  S E  E  E  E  E     E  E  E  S E.  E  E  E   
---------------------------|--2-----2-----------------|
--5--5-5--5-5-----5--7--8--|--3--------3-3---------3--|
--5---------------5--------|-----2--------------2-----|
---------------5-----------|-----------------0--------|
--5------------------------|--------------------------|
---------------------------|--0-----------------------|


  E  E  E  E  E  S S E  E     E  E  E  S S E  E  E  E   
---------------------------|---------------------------|
--2-----2-----2--4-5----5--|--5--------4---4-----------|
--2--------4------------2--|--4-----4----6-------4-----|
-----2---------------2-----|-----4------------4-----4--|
--2------------------------|--4------------------------|
---------------------------|---------------------------|


  E.  E.  Q    E  E  E     E  S S E  E  E  S S E  E   
---------------3--2-----|----------------------------|
---------------------3--|--3--5-5----3--3--5-5----3--|
--4---5---4-------------|--0---------0------------0--|
------------------------|---------2------------2-----|
--4---5---4-------------|----------------------------|
------------------------|--2-------------------------|


  E  S S E  E  E  E  E  E     E  E  E  E   E  E  E  E   
------------------------5--|---------------8-----5-----|
-----5-5----5--5--7--8-----|--7-----------10-----7-----|
--7---------5--------------|--------7------------------|
---------5-----------------|-----0-----0------0-----0--|
--5------------------------|---------------------------|
---------------------------|--0------------------------|


  E  S E.  E  E  E  E  E     E  S S E  E  E  S S E  E   
--5----5---7-----3--2-----|----------------------------|
--7----7---8-----0-----3--|--3--5-5----3--3--5-5----3--|
-----0--------------------|--0---------0--2---------2--|
--------------------------|---------2------------0-----|
--0-----------0-----------|----------------------------|
--------------------4-----|--2------------0------------|


  E  S S E  E  E  E  E  E     E  E  E  E  E  E  E  E   
------------------------5--|-----------------------5--|
-----5-5----5--5--7--8-----|--5-----------5--7--8-----|
--7---------5--------------|--5-----5-----------------|
---------5-----------------|-----5-----5--------------|
--5------------------4-----|--------------------------|
---------------------------|--7-----------------------|


  E  S E.  E  E  E  E  E     E  S S E  E  E  S S E  E   
--------------------2-----|----------------------------|
--7--------------8-----3--|--3--5-5----3--3--5-5----3--|
-------7---4--------------|--0---------0------------0--|
-----4--------------------|---------2------------2-----|
--4-----------4-----------|----------------------------|
--------------------0-----|--2-------------------------|


  E  S S E  E  E  E  E  E     E  E  E  E   E  E  E  E   
------------------------5--|---------------8-----5-----|
-----5-5----5--5--7--8-----|--7-----------10-----7-----|
--7---------5--------------|--------7------------------|
---------5-----------------|-----0-----0------0-----0--|
--5------------------------|---------------------------|
---------------------------|--0------------------------|


  E  S E.  E  E  E  E  E     E  S S E  E  E  S S E  E   
--5----5---7-----3--2-----|----------------------------|
--7----7---8-----0-----3--|--3--5-5----3--3--5-5----3--|
-----0--------------------|--0---------0--2---------2--|
--------------------------|---------2------------0-----|
--0-----------0-----------|----------------------------|
--------------------4-----|--2------------0------------|


  E  S S E  E  E  E  E  E     E  E  E  E  E  E  E  E   
------------------------5--|-----------------------5--|
-----5-5----5--5--7--8-----|--5-----------5--7--8-----|
--7---------5--------------|--5-----5-----------------|
---------5-----------------|-----5-----5--------------|
--5------------------4-----|--------------------------|
---------------------------|--7-----------------------|


  E  E  E  E  E  E  E  E     E  S S E  E  E  S S E  E   
--------------------------|---------------2------------|
--7-----------------------|-----5-5----8-----3-0----3--|
--------7-----4-----7-----|--7----------------------2--|
-----4-----4-----4-----4--|---------5------------0-----|
--4-----------------------|--5-------------------------|
--------------------------|---------------0------------|


  E  S E.  E  E  S E  S S  S    E  E  E  S S E.  E.  E     W                  
-----0-0---------------------|-----------------------0--|-------------------||
--3--0-0---------------------|-----------------------0--|--L----------------||
--2--------------------------|-----------------------1--|-------------------||
-----------------------------|-----------------------2--|-------------------||
-----------4--4--4-4--4-4----|-----4--4--4-4-4---2---x--|-------------------||
--2--------0--2--2-0--0-0h-2-|--x--2--2--0-0-2---0---2--|-------------------||



Credits go to this guy: https://www.youtube.com/watch?v=pq45QLBYquU


        
Comments

No comments yet