Gametabs
Home
Tabs
Random

Ketsui to Kakugo

Average rating: 5.000

2 ratings

Composer:

Tabber:

Style:

Instrument:

Created: January 03, 2014 at 12:00 AM

            Title: Ketsui to kakugo
SubTitle: Toaru Kagaku no Railgun S
Artist: Maiko Iuchi
Tabber: Mitch Jackson
Tempo = 108
T/S = 3/4


     ♪♫•*¨*•.¸¸ CAPO 5 ¸¸.•*¨*•♫♪


--------
LEGEND
--------
. = Palm Mute bottom 3 strings
> = Accented note
L = Let Ring


NOTE: Use your thumb or a thumb pick and sweep the bottom 3 strings throughout the song to get the strum effect.


     E  E  E  E  E  E       E  E  E  E  E  E       E  E  E  E  E  E       E  E  E  E  E  E
E |----------------------|----------------------|----------------------|--------------9-------|
B |----------------------|----------------------|----------------------|----------------------|
G |----------------------|----------------------|----------------------|----------------------|
D |--6--6--6--6--6--6----|--9--9--9--9--9--9----|--2--2--2--2--2--2----|--2--2--2--2--2--2----|
A |--4--4--4--4--4--4----|--7--7--7--7--7--7----|--0--0--0--0--0--0----|--0--0--0--0--0--0----|
D |--4--4--4--4--4--4----|--7--7--7--7--7--7----|--0--0--0--0--0--0----|--0--0--0--0--0--0----|
     .  .  .  .  .  .       .  .  .  .  .  .       .  .  .  .  .  .       .  .  .  .  .  .


     E  E  E  E  E  E       E  E  E  E  E  E       E  E  E  E  E  E       E  E  E  E  E  E     
  |----------------------|----------------------|----------------------|----------------------|
  |--7-------------------|--10------------------|--2-------------------|----------------------|
  |----------------------|----------------------|----------------------|----------------------|
  |--6--6--6--6--6--6----|--9--9--9--9--9--9----|--2--2--2--2--2--2----|--2--2--2--2--2--2----|
  |--4--4--4--4--4--4----|--7--7--7--7--7--7----|--0--0--0--0--0--0----|--0--0--0--0--0--0----|
  |--4--4--4--4--4--4----|--7--7--7--7--7--7----|--0--0--0--0--0--0----|--0--0--0--0--0--0----|
     .  .  .  .  .  .       .  .  .  .  .  .       .  .  .  .  .  .       .  .  .  .  .  .


     E  E  E  E  E  E       E  E  E  E  E  E       E  E  E  E  E  E       E  E  E  E  E  E    
  |----------------------|----------------------|--4-------------------|--------------2-------|
  |----------------------|----------------------|----------------------|----------------------|
  |--6-------------------|----------------------|----------------------|----------------------|
  |--6--6--6--6--6--6----|--9--9--9--9--9--9----|--2--2--2--2--2--2----|--2--2--2--2--2--2----|
  |--4--4--4--4--4--4----|--7--7--7--7--7--7----|--0--0--0--0--0--0----|--0--0--0--0--0--0----|
  |--4--4--4--4--4--4----|--7--7--7--7--7--7----|--0--0--0--0--0--0----|--0--0--0--0--0--0----|
     .  .  .  .  .  .       .  .  .  .  .  .       .  .  .  .  .  .       .  .  .  .  .  .
      

     E  E  E  E  E  E       E  E  E  E  E  E       E  E  E  E  E  E       E  E  E  E  E  E     
  |----------------------|----------------------|----------------------|----------------------|
  |--7s-9----------------|--9-------------------|----------------------|----------------------|
  |----------------------|----------------------|----------------------|----------------------|
  |--6--6--6--6--6--6----|--9--9--9--9--9--9----|--2--2--2--2--2--2----|--2--2--2--2--2--2----|
  |--4--4--4--4--4--4----|--7--7--7--7--7--7----|--0--0--0--0--0--0----|--0--0--0--0--0--0----|
  |--4--4--4--4--4--4----|--7--7--7--7--7--7----|--0--0--0--0--0--0----|--0--0--0--0--0--0----|
     .  .  .  .  .  .       .  .  .  .  .  .       .  .  .  .  .  .       .  .  .  .  .  .


     E  E  E  E  E  E       E  E  E  E  E  E       E  E  E  E  E  E       E  E  E  E  E  E
  |----------------------|----------------------|--4-------------------|--------------5-------|
  |----------------------|----------------------|----------------------|----------------------|
  |--6-------------------|----------------------|----------------------|----------------------|
  |--6--6--6--6--6--6----|--9--9--9--9--9--9----|--2--2--2--2--2--2----|--2--2--2--2--2--2----|
  |--4--4--4--4--4--4----|--7--7--7--7--7--7----|--0--0--0--0--0--0----|--0--0--0--0--0--0----|
  |--4--4--4--4--4--4----|--7--7--7--7--7--7----|--0--0--0--0--0--0----|--0--0--0--0--0--0----|
     .  .  .  .  .  .       .  .  .  .  .  .       .  .  .  .  .  .       .  .  .  .  .  .
 

     E  E  E  E  E  E       E  E  E  E  E  E       E  E  E  E  E  E       E  E  E  E  E  E
  |--5h-7----------------|----------------------|--4-------------------|--0-----------9--9----|
  |----------------------|--10------------------|----------------------|----------------------|
  |----------------------|----------------------|----------------------|----------------------|
  |--6--6--6--6--6--6----|--9--9--9--9--9--9----|--2--2--2--2--2--2----|--2--2--2--2--2--2----|
  |--4--4--4--4--4--4----|--7--7--7--7--7--7----|--0--0--0--0--0--0----|--0--0--0--0--0--0----|
  |--4--4--4--4--4--4----|--7--7--7--7--7--7----|--0--0--0--0--0--0----|--0--0--0--0--0--0----|
     .  .  .  .  .  .       .  .  .  .  .  .       .  .  .  .  .  .       .  .  .  .  
    

     E  E  E  E  E  E       E  E  E  E  E  E       E  E  E  E  E  E       E  E  E  E  E  E     
  |----------------------|----------------------|----------------------|--------------9>-9>---|
  |--7>------------------|--10>-----------------|--2>------------------|----------------------|
  |----------------------|----------------------|----------------------|----------------------|
  |--6--6--6--6--6--6----|--9--9--9--9--9--9----|--2--2--2--2--2--2----|--2--2--2--2--2--2----|
  |--4--4--4--4--4--4----|--7--7--7--7--7--7----|--0--0--0--0--0--0----|--0--0--0--0--0--0----|
  |--4--4--4--4--4--4----|--7--7--7--7--7--7----|--0--0--0--0--0--0----|--0--0--0--0--0--0----|

     

     E  E  E  E  E  E       E  E  E  E  E  E       E  E  E  E  E  E       E  E  E  E  E  E
  |----------------------|----------------------|----------------------|--5>------------------|
  |--7>------------------|--10>-----------------|--2>------------------|----------------------|
  |----------------------|----------------------|----------------------|----------------------|
  |--6--6--6--6--6--6----|--9--9--9--9--9--9----|--2--2--2--2--2--2----|--2--2--2--2--2--2----|
  |--4--4--4--4--4--4----|--7--7--7--7--7--7----|--0--0--0--0--0--0----|--0--0--0--0--0--0----|
  |--4--4--4--4--4--4----|--7--7--7--7--7--7----|--0--0--0--0--0--0----|--0--0--0--0--0--0----|

  

     E  E  E  E  E  E       E  E  E  E  E  E       E  E  E  E  E  E       E  E  E  E  E  E
  |----------------------|----------------------|--4>------------------|--------------2>------|
  |----------------------|----------------------|----------------------|----------------------|
  |--6>------------------|----------------------|----------------------|----------------------|
  |--6--6--6--6--6--6----|--9--9--9--9--9--9----|--2--2--2--2--2--2----|--2--2--2--2--2--2----|
  |--4--4--4--4--4--4----|--7--7--7--7--7--7----|--0--0--0--0--0--0----|--0--0--0--0--0--0----|
  |--4--4--4--4--4--4----|--7--7--7--7--7--7----|--0--0--0--0--0--0----|--0--0--0--0--0--0----|

     

     E  E  E  E  E  E       E  E  E  E  E  E       E  E  E  E  E  E       E  E  E  E  E  E
  |----------------------|----------------------|--4>------------------|----------------------|
  |--7>-9>---------------|--9>------------------|----------------------|----------------------|
  |----------------------|----------------------|----------------------|----------------------|
  |--6--6--6--6--6--6----|--9--9--9--9--9--9----|--2--2--2--2--2--2----|--2--2--2--2--2--2----|
  |--4--4--4--4--4--4----|--7--7--7--7--7--7----|--0--0--0--0--0--0----|--0--0--0--0--0--0----|
  |--4--4--4--4--4--4----|--7--7--7--7--7--7----|--0--0--0--0--0--0----|--0--0--0--0--0--0----|

   

     E  E  E  E  E  E       E  E  E  E  E  E       E  E  E  E  E  E       E  E  E  E  E  E
  |----------------------|----------------------|--4>------------------|--------------5>------|
  |----------------------|----------------------|----------------------|----------------------|
  |--6>------------------|----------------------|----------------------|----------------------|
  |--6--6--6--6--6--6----|--9--9--9--9--9--9----|--2--2--2--2--2--2----|--2--2--2--2--2--2----|
  |--4--4--4--4--4--4----|--7--7--7--7--7--7----|--0--0--0--0--0--0----|--0--0--0--0--0--0----|
  |--4--4--4--4--4--4----|--7--7--7--7--7--7----|--0--0--0--0--0--0----|--0--0--0--0--0--0----|

     

     E  E  E  E  E  E       E  E  E  E  E  E       E  E  E  E  E  E       E  E  E  E  E  E
  |--5>-7>---------------|----------------------|--4>------------------|--2>----------9>-9>---|
  |----------------------|--10>-----------------|----------------------|----------------------|
  |----------------------|----------------------|----------------------|----------------------|
  |--6--6--6--6--6--6----|--9--9--9--9--9--9----|--2--2--2--2--2--2----|--2--2--2--2--2--2----|
  |--4--4--4--4--4--4----|--7--7--7--7--7--7----|--0--0--0--0--0--0----|--0--0--0--0--0--0----|
  |--4--4--4--4--4--4----|--7--7--7--7--7--7----|--0--0--0--0--0--0----|--0--0--0--0--0--0----|

    
     ^                      ^                      ^
     E  E  E  E  E  E       E  E  E  E  E  E       E  E  E  E  E  E       E  E  E  E  E  E    
  |----------------------|----------------------|----------------------|--------------9>-9>---|
  |--7-------------------|--10------------------|--2-------------------|--0>------------------|
  |--4-------------------|--9-------------------|--2-------------------|----------------------|
  |--6--6--6--6--6--6----|--9--9--9--9--9--9----|--2--2--2--2--2--2----|--2--2--2--2--2--2----|
  |--4--4--4--4--4--4----|--7--7--7--7--7--7----|--0--0--0--0--0--0----|--0--0--0--0--0--0----|
  |--4--4--4--4--4--4----|--7--7--7--7--7--7----|--0--0--0--0--0--0----|--0--0--0--0--0--0----|


     ^                      ^                      ^
     E  E  E  E  E  E       E  E  E  E  E  E       E  E  E  E  E  E       E  E  E  E  E  E    
  |----------------------|----------------------|----------------------|--5>----------9>-9>---|
  |--7-------------------|--10------------------|--2-------------------|----------------------|
  |--4-------------------|--9-------------------|--2-------------------|----------------------|
  |--6--6--6--6--6--6----|--9--9--9--9--9--9----|--2--2--2--2--2--2----|--2--2--2--2--2--2----|
  |--4--4--4--4--4--4----|--7--7--7--7--7--7----|--0--0--0--0--0--0----|--0--0--0--0--0--0----|
  |--4--4--4--4--4--4----|--7--7--7--7--7--7----|--0--0--0--0--0--0----|--0--0--0--0--0--0----|

   
     ^                      ^                      ^
     E  E  E  E  E  E       E  E  E  E  E  E       E  E  E  E  E  E       E  E  E  E  E  E
  |----------------------|----------------------|----------------------|--------------9>-9>---|
  |--7-------------------|--10------------------|--2-------------------|----------------------|
  |--4-------------------|--9-------------------|--2-------------------|----------------------|
  |--6--6--6--6--6--6----|--9--9--9--9--9--9----|--2--2--2--2--2--2----|--2--2--2--2--2--2----|
  |--4--4--4--4--4--4----|--7--7--7--7--7--7----|--0--0--0--0--0--0----|--0--0--0--0--0--0----|
  |--4--4--4--4--4--4----|--7--7--7--7--7--7----|--0--0--0--0--0--0----|--0--0--0--0--0--0----|

    
     ^                      ^                      ^
     E  E  E  E  E  E       E  E  E  E  E  E       E  E  E  E  E  E       E  E  E  E  E  E     
  |----------------------|----------------------|----------------------|--0>------------------|
  |--7-------------------|--10------------------|--2-------------------|----------------------|
  |--4-------------------|--9-------------------|--2-------------------|----------------------|
  |--6--6--6--6--6--6----|--9--9--9--9--9--9----|--2--2--2--2--2--2----|--2--2--2--2--2--2----|
  |--4--4--4--4--4--4----|--7--7--7--7--7--7----|--0--0--0--0--0--0----|--0--0--0--0--0--0----|
  |--4--4--4--4--4--4----|--7--7--7--7--7--7----|--0--0--0--0--0--0----|--0--0--0--0--0--0----|



     E  E  E  E  E  E       E  E  E  E  E  E       E  E  E  E  E  E       E  E  E  E  E  E     
  |----------------------|----------------------|----------------------|----------------------|
  |----------------------|----------------------|-----------0----------|-----------0----------|
  |-----------4----------|-----------4----------|----------------------|----------------------|
  |--------4-----4-------|--------4-----4-------|-----2--4-----4--2----|-----2--4-----4--2----|
  |-----7-----------7----|-----7-----------7----|--0-------------------|--2-------------------|
  |--4-------------------|--6-------------------|----------------------|----------------------|

                      

     E  E  E  E  E  E       E  E  E  E  E  E       E  E  E  E  E  E       E  E  E  E  E  E     
  |----------------------|----------------------|----------------------|--------------0-------|
  |----------------------|----------------------|-----------0----------|-----------0----------|
  |-----------4----------|-----------4----------|----------------------|--------1-------------|
  |--------4-----4-------|--------4-----4-------|-----2--4-----4--2----|-----2-----------2----|
  |-----7-----------7----|-----7-----------7----|--0-------------------|--2-------------------|
  |--4-------------------|--6-------------------|----------------------|----------------------|

                                                                     

     E  E  E  E  E  E       E  E  E  E  E  E       E  E  E  E  E  E       E  E  E  E  E  E     
  |----------------------|----------------------|----------------------|----------------------|
  |--5-------------------|----------------------|-----------0----------|--------4--0----------|
  |--------6--4----------|-----------4----------|----------------------|----------------------|
  |--------4-----4-------|--------4-----4-------|-----2--4-----4--2----|-----2--------4--2----|
  |-----7-----------7----|-----7-----------7----|--0-------------------|--2-------------------|
  |--4-------------------|--6-------------------|----------------------|----------------------|

                                            

     E  E  E  E  E  E       E  E  E  E  E  E       E  E  E  E  E  E       E  E  E  E  E  E     
  |----------------------|----------------------|----------------------|----------------------|
  |--5-------------------|--7-----------4-------|--4--------0--0-------|-----------0----------|
  |-----------4----------|-----------4----------|----------------------|----------------------|
  |--------4-----4-------|--------4-----4-------|-----2--4-----4--2----|-----2--4-----4--2----|
  |-----7-----------7----|-----7-----------7----|--0-------------------|--2-------------------|
  |--4-------------------|--6-------------------|----------------------|----------------------|

                 

     E  E  E  E  E  E       E  E  E  E  E  E       E  E  E  E  E  E       E  E  E  E  E  E     
  |----------------------|----------------------|----------------------|----------------------|
  |--4-------------------|----------------------|----------------------|----------------------|
  |----------------------|----------------------|--6-------------------|----------------------|
  |--6--6--6--6--6--6----|--6--6--6--6--6--6----|--6--6--6--6--6--6----|--6--6--6--6--6--6----|
  |--4--4--4--4--4--4----|--4--4--4--4--4--4----|--4--4--4--4--4--4----|--4--4--4--4--4--4----|
  |--4--4--4--4--4--4----|--4--4--4--4--4--4----|--4--4--4--4--4--4----|--4--4--4--4--4--4----|
     .  .  .  .  .  .       .  .  .  .  .  .       .  .  .  .  .  .       .  .  .  .  .  .
 

     E  E  E  E  E  E       E  E  E  E  E  E       E  E  E  E  E  E       E  E  E  E  E  E     
  |----------------------|----------------------|----------------------|----------------------|
  |--4-------------------|----------------------|----------------------|----------------------|
  |----------------------|----------------------|--6-------------------|----------------------|
  |--6--6--6--6--6--6----|--6--6--6--6--6--6----|--6--6--6--6--6--6----|--6--6--6--6--6--6----|
  |--4--4--4--4--4--4----|--4--4--4--4--4--4----|--4--4--4--4--4--4----|--4--4--4--4--4--4----|
  |--4--4--4--4--4--4----|--4--4--4--4--4--4----|--4--4--4--4--4--4----|--4--4--4--4--4--4----|
     .  .  .  .  .  .       .  .  .  .  .  .       .  .  .  .  .  .       .  .  .  .  .  .
 

     H.
  |----------------------||
  |----------------------||
  |----------------------||
  |--L-------------------||
  |--L-------------------||
  |--L-------------------||


        
Comments

No comments yet