Gametabs
Home
Tabs
Random

Lament of a Stranger

Average rating: 5.000

4 ratings

Composer:

Tabber:

Style:

Instrument:

Created: April 26, 2013 at 12:00 AM

            Title:  Lament of a Stranger                               
Artist: Kan. R. Gao, Laura Shigihara
Tab by: Ennea

The tempo changes might be confusing, they are meant to simulate the dynamic playing of this piece.
Listen to the original or midi to get it right!

Dropped D tuning
Capo on 2nd fret

let ring throughout

t=114
     W                   H        Q    Q       E  E   E  E  E   E  Q     
E||-------------------|---------------------|--5---------5---------4----|
B||-------------------|---------------------|---------------------------|
G||-------------------|-----------6----7----|-----6h--7-----6h--7-------|
D||-------------------|---------------------|----------------------4----|
A||-------------------|---------------------|------------4--------------|
D||--4----------------|--4------------------|--4------------------------|


  H        Q    Q       E  E   E  E  E   E  Q       H        Q    Q     
---------------------|--5---------5---------4----|---------------------|
---------------------|---------------------------|-----------2----3----|
-----------6----7----|-----6h--7-----6h--7-------|---------------------|
---------------------|----------------------4----|---------------------|
---------------------|------------4--------------|---------------------|
--4------------------|--4------------------------|--4------------------|


  E  E   E  E  E   E  Q       H        Q    Q       E  E   E  E  E   E  Q     
--5---------5---------4----|---------------------|--5---------5---------4----|
-----2h--3-----2h--3--3----|-----------2----3----|-----2h--3-----2h--3--3----|
------------2--------------|---------------------|------------2--------------|
--0------------------------|---------------------|--0------------------------|
---------------------------|---------------------|---------------------------|
---------------------------|--0------------------|---------------------------|

						   t=80
  H        Q    Q       E  E   E  E  E   E  Q       W                 
---------------------|--5---------5---------4----|-------------------|
-----------2----3----|-----2h--3-----2h--3--0----|-------------------|
---------------------|---------------------------|-------------------|
---------------------|------------2--------------|-------------------|
---------------------|--0------------------------|-------------------|
--0------------------|---------------------------|--2----------------|

t=110				  t=105		 t=114
  Q    Q    E  E   E  E     E   E  H.              E  E  E  E   E  E  E   E   
-------------------------|----------------------|----------------------------|
------------5---------5--|----------------------|--------5---------5---------|
-------------------------|---------6------------|----------------------------|
--6----7-------6h--7-----|--6h--7--4------------|--6--7-----6h--7-----6h--7--|
----------------------4--|----------------------|------------------4---------|
------------4------------|----------------------|--------4-------------------|

						   t=40
  Q.      E.    E.    E   E     E  E   E  E  E   E  Q     
-----------------------------|--0---------0--------------|
--2--------------------------|----------------------0----|
---------(1)---(2)--------2--|-----1h--2-----1h--2-------|
--4------------------(4)-----|---------------------------|
-----------------------------|------------0---------4----|
-----------------------------|--0------------------------|

t=114									 t=50
  E  E  E  E   E  E  E   E      H         H           E  E   E  E  E   E  Q     
--------0---------0---------|----------------------|--5---------5---------4----|
----------------------------|---0---------2--------|---------------------------|
--1--2-----1h--2-----1h--2--|----------------------|-----6h--7-----6h--7-------|
----------------------------|--(2)-----------------|----------------------4----|
------------------0---------|---4------------------|------------4--------------|
--------0-------------------|----------------------|--4------------------------|

t=114			     t=90      t=114			    t=60
  E  E  E  E   E  E  E   E     H        E  E  E  E      E  E  E   E  H         
--------5---------5---------|--4--------------5------|-----5---------4--------|
--2--3-----2h--3-----2h--3--|-----------2--3-----2h--|--3-----2h--3-----------|
----------------------------|------------------------|------------------------|
----------------------------|--2---------------------|---------------2--------|
------------------4---------|------------------------|-----0------------------|
--------2-------------------|-----------------0------|------------------------|


  W                  
-------------------||
-------------------||
-------------------||
-------------------||
-------------------||
--4----------------||




Duration Legend
---------------
W - whole
H - half
Q - quarter
E - 8th
S - 16th
T - 32nd
X - 64th
. - note dotted
|-n-|  - n-tuplets


Tablature Legend
----------------
L - tied note
x - dead note
g - grace note
(n) - ghost note
> - accentuded note
NH - natural harmonic
AH - artificial harmonic
TH - tapped harmonic
SH - semi harmonic
PH - pitch harmonic
h - hammer on
p - pull off
b - bend
br - bendRelease
pb - preBend
pbr - preBendRelease
brb - bendReleaseBend
\n/ - tremolo bar dip
\n - tremolo bar dive
-/n - tremolo bar Release up
/n\ - tremolo bar inverted dip
/n - tremolo bar return
-\n - tremolo bar Release down
S - shift slide
s - legato slide
/ -  slide into from below or out of upwards
\ -  slide into from above or out of downwards
~ - vibrato
W - wide vibrato
tr - trill
TP - tremolo picking
T - tapping
S - slap
P - pop
< - fade in
^ - brush up
v - brush down

        
Comments

@mat094 (April 26, 2013 at 6:38 PM)

it sounds wonderful, really nice job!


@Choogly (April 26, 2013 at 9:45 PM)

This is amazing! I'm so excited to play this


@thedstring (April 28, 2013 at 1:30 AM)

This is such a cool sounding song, I figured I'd show you the way I found works better for me when playing. Please don't take this as any kind of criticism, all I did was move some stuff up a position cause it's easier for me.

IV_______________________________________________________________
W                   H        Q    Q       E  E   E  E  E   E  Q
E||-------------------|---------------------|--5---------5---------4----|
B||-------------------|---------------------|---------------------------|
G||-------------------|-----------6----7----|-----6h--7-----6h--7-------|
D||-------------------|---------------------|----------------------4----|
A||-------------------|---------------------|------------4--------------|
D||--4----------------|--4------------------|--4------------------------|

IV_______________________________________________________________
H        Q    Q       E  E   E  E  E   E  Q       H        Q    Q
---------------------|--5---------5---------4----|---------------------|
---------------------|---------------------------|---------------------|
-----------6----7----|-----6h--7-----6h--7-------|-----------6----7----|
---------------------|----------------------4----|---------------------|
---------------------|------------4--------------|---------------------|
--4------------------|--4------------------------|--4------------------|

II____half bar________                            II____half bar________
E  E   E  E  E   E  Q       H        Q    Q       E  E   E  E  E   E  Q
--5---------5---------4----|---------------------|--5---------5---------4----|
-----2h--3-----2h--3--3----|-----------2----3----|-----2h--3-----2h--3--3----|
------------2--------------|---------------------|------------2--------------|
--0------------------------|---------------------|--0------------------------|
---------------------------|---------------------|---------------------------|
---------------------------|--0------------------|---------------------------|

II____half bar_____
H        Q    Q       E  E   E  E  E   E  Q       W
---------------------|--5---------5---------4----|-------------------|
-----------2----3----|-----2h--3-----2h--3-------|-------------------|
---------------------|----------------------4----|-------------------|
---------------------|------------2--------------|-------------------|
---------------------|--0------------------------|-------------------|
--0------------------|---------------------------|--2----------------|

Q    Q    E  E   E  E     E   E  H.              E  E  E  E   E  E  E   E
------------0---------0--|----------------------|--------0---------0---------|
-------------------------|----------------------|----------------------------|
-------------------------|---------6------------|----------------------------|
--6----7-------6h--7-----|--6h--7--4------------|--6--7-----6h--7-----6h--7--|
----------------------4--|----------------------|------------------4---------|
------------4------------|----------------------|--------4-------------------|

Q.      E.    E.    E   E     E  E   E  E  E   E  Q
-----------------------------|--0---------0--------------|
-----------------------------|----------------------0----|
--6------(1)---(2)--------2--|-----1h--2-----1h--2-------|
--4------------------(4)-----|---------------------------|
-----------------------------|------------0---------4----|
-----------------------------|--0------------------------|

IV_____________________
E  E  E  E   E  E  E   E      H         H           E  E   E  E  E   E  Q
--------0---------0---------|----------------------|--5---------5---------4----|
----------------------------|---0---------2--------|---------------------------|
--1--2-----1h--2-----1h--2--|----------------------|-----6h--7-----6h--7-------|
----------------------------|--(2)-----------------|----------------------4----|
------------------0---------|---4------------------|------------4--------------|
--------0-------------------|----------------------|--4------------------------|

II_____________________________
E  E  E  E   E  E  E   E     H        E  E  E  E      E  E  E   E  H
--------5---------5---------|--4--------------5------|-----5---------4--------|
--2--3-----2h--3------------|------------------------|------------------------|
----------------------------|-----------6--7-----6h--|--7-----6h--7-----------|
----------------------------|--2---------------------|---------------2--------|
------------------4---------|------------------------|-----0------------------|
--------2-------------------|-----------------0------|------------------------|

W
-------------------||
-------------------||
-------------------||
-------------------||
-------------------||
--4----------------||