Gametabs
Home
Tabs
Random

Go! RITO (Solo)

Average rating: No ratings

Composer:

Tabber:

Style:

Instrument:

Created: November 16, 2011 at 12:00 AM

            Go! RITO
Watanabe Tsuyoshi

Tab by Caldron


Solo Guitar
                                                        PH               
              Q.       H           E     E     E  E     Q.       E   E   
E||-------|---------------------------|---------------------------------|
B||-------|--12b------12pbr--------L--|--------------<>10~--------------|
G||-------|---------------------------|-----------9-------------11------|
D||-------|---------------------------|-----9g11--------------------11--|
A||-------|---------------------------|---------------------------------|
E||-------|---------------------------|---------------------------------|


  E  E  E  Q       E  E  E       H        E      E   E   E   
----------------------------|-------------------------------|
----------------------------|-------------------------------|
----------------------------|-------------------------------|
--9--7--9--9pbr----7--------|-----------------------14--16--|
----------------------9-----|--7g9-----------14g16----------|
-------------------------9--|-------------------------------|


   E   Q      E   E   E   Q        Q     E   Q.       S   E   S   
-----------------14-------------|----------------------------14h-|
-------------14------14--17b----|--L----17--17~------14h-17------|
--14--16b-----------------------|--------------------------------|
--------------------------------|--------------------------------|
--------------------------------|--------------------------------|
--------------------------------|--------------------------------|


   S  S   S  S  S  S  S  S  S  Q      S  E      Q     E   E    E   E   E   E   
--17-14h-17-17-14----14---------------------|---------------------------------|
------------------17----17-14---------------|---------------------------------|
------------------------------16br----L-----|--14~----L\------------------14--|
----------------------------------------16--|---------------------14--16------|
--------------------------------------------|----------------/16--------------|
--------------------------------------------|---------------------------------|


   E    E  E   Q.        E   E      Q.          Q     E   E   E   
--------------------------------|--------------------------------|
-------14-----------------------|----------------------------17--|
--16b---L-----16br------14--16--|--14~---------------14--16------|
--------------------------------|-----------14g16----------------|
--------------------------------|--------------------------------|
--------------------------------|--------------------------------|


  E   E   E   Q     E   E   E      E.   S  E   E   Q     E    E    
--------------------------------|---------------------------------|
--L-----------------------------|-----------------------15b--15~--|
-----16b-----16----14--16--16b--|--L---14-16------14--------------|
--------------------------------|-------------16------------------|
--------------------------------|---------------------------------|
--------------------------------|---------------------------------|


  Q.      Q     E   E   E     H        Q       Q     
---------------14----------|------------------------|
--L------15--------15--16--|--L--------L\-----------|
---------------------------|------------------------|
---------------------------|------------------------|
---------------------------|-----------------/14----|
---------------------------|------------------------|


   |----3---|    |----3---|   |---3---|    |----3---|   
   E   E    E    E   E    E   E   E   E    E   E    E   
-------------------------------------------------------|
-------------------------------------------------------|
-------------------------------------------------------|
-----------------------------14------14h--16--14h--16--|
--14--12h--14h--16--14h--16------16--------------------|
-------------------------------------------------------|


   |---3---|    |----3---|   |---3---|    |----3---|                         
   E   E   E    E   E    E   E   E   E    E   E    E      W                  
------------------------------------------------------|---------------------|
----------------------------14------14h--17--14h--17--|--17b----------------|
--14------14h--16--14h--16------16--------------------|---------------------|
------16----------------------------------------------|---------------------|
------------------------------------------------------|---------------------|
------------------------------------------------------|---------------------|


  W                  
-------------------||
--L----------------||
-------------------||
-------------------||
-------------------||
-------------------||




Duration Legend
---------------
W - whole
H - half
Q - quarter
E - 8th
S - 16th
T - 32nd
X - 64th
. - note dotted
|-n-|  - n-tuplets


Tablature Legend
----------------
L - tied note
x - dead note
g - grace note
(n) - ghost note
> - accentuded note
NH - natural harmonic
AH - artificial harmonic
TH - tapped harmonic
SH - semi harmonic
PH - pitch harmonic
h - hammer on
p - pull off
b - bend
br - bendRelease
pb - preBend
pbr - preBendRelease
brb - bendReleaseBend
\n/ - tremolo bar dip
\n - tremolo bar dive
-/n - tremolo bar Release up
/n\ - tremolo bar inverted dip
/n - tremolo bar return
-\n - tremolo bar Release down
S - shift slide
s - legato slide
/ -  slide into from below or out of upwards
\ -  slide into from above or out of downwards
~ - vibrato
W - wide vibrato
tr - trill
TP - tremolo picking
T - tapping
S - slap
P - pop
< - fade in
^ - brush up
v - brush down

        
Comments

No comments yet