Gametabs
Home
Tabs
Random

Main Theme

Average rating: 5.000

2 ratings

Composer:

Tabber:

Style:

Instrument:

Created: April 22, 2010 at 12:00 AM

                                            Main Theme                                    
                                Titan Quest

                                Scott Morton




     E  E  E  E  E  E  E  E     E  E  E  E  S  E.  E  E   
E||--------5-----6-----3-----|--5------------------------|
B||--3-----------------------|--------6-----6h-8---------|
G||-----2-----2-----0-----0--|-----5-----5--0------------|
D||--0-----------0-----------|--0------------------------|
A||--------------------------|---------------------8--7--|
E||--------------------------|---------------------------|


  E  E  E  E   E  E  E  E     E  E  E  S S E  E  E  E     
--------5-----10-----8--6--|--5--------3-5-3------------||
--3--------3---------------|--------6------------6--5---||
-----2------------7--------|-----5------------5--------*||
--0------------0-----------|--3------------------------*||
---------------------------|---------------3------------||
---------------------------|----------------------------||


  E  E  E  E  E  E  E  E     W                                
--------1-----------------|-------------------|-------|-----||
--3-----------5-----------|--3----------------|-------|-----||
-----2-----2--------5-----|-------------------|-------|-----||
--0--------------5-----5--|-------------------|-------|-----||
--------------3-----------|--5----------------|-------|-----||
--------------------------|-------------------|-------|-----||




Duration Legend
---------------
W - whole
H - half
Q - quarter
E - 8th
S - 16th
T - 32nd
X - 64th
. - note dotted
|-n-|  - n-tuplets


Tablature Legend
----------------
L - tied note
x - dead note
g - grace note
(n) - ghost note
> - accentuded note
NH - natural harmonic
AH - artificial harmonic
TH - tapped harmonic
SH - semi harmonic
PH - pitch harmonic
h - hammer on
p - pull off
b - bend
br - bendRelease
pb - preBend
pbr - preBendRelease
brb - bendReleaseBend
\n/ - tremolo bar dip
\n - tremolo bar dive
-/n - tremolo bar Release up
/n\ - tremolo bar inverted dip
/n - tremolo bar return
-\n - tremolo bar Release down
S - shift slide
s - legato slide
/ -  slide into from below or out of upwards
\ -  slide into from above or out of downwards
~ - vibrato
W - wide vibrato
tr - trill
TP - tremolo picking
T - tapping
S - slap
P - pop
< - fade in
^ - brush up
v - brush down

        
Comments

@natenmn (March 14, 2011 at 1:03 AM)

This is great. Short and sweet, but awesome. I remember playing the demo for Titan quest a few years ago... it was fun and I always wanted to buy the full game D: