Gametabs
Home
Tabs
Random

The Dike

Average rating: 5.000

7 ratings

Composer:

Tabber:

Style:

Instrument:

Created: July 19, 2016 at 12:00 AM

                                              The Dike   
                                 The Witcher                                  
                               Pawel Blaszczak




     ^                       NH              NH      ^                   
     H.           Q          H.              Q       H.           Q      
E||--7------------8----|--------------------------|--5------------2h----|
B||--0-----------------|--<>12--------------------|--0------------------|
G||--0-----------------|------------------<>19----|---------------------|
D||--x-----------------|--------------------------|---------------------|
A||--7-----------------|--------------------------|--7------------------|
E||--0-----------------|--------------------------|--0------------------|


                        ^                    ^               NH    
  H         H           H.           Q       H.              Q     
--3p--------0--------|--7------------8----|--7--------------------|
---------------------|--0-----------------|--0--------------------|
---------------------|--0-----------------|--0------------<>19----|
---------------------|--x-----------------|-----------------------|
---------------------|--7-----------------|-----------------------|
---------------------|--0-----------------|-----------------------|


  ^                                           ^                  
  H.           Q         H        H           H.           Q     
--5------------2----|--2g3--------2--------|---------------2----|
--3-----------------|----------------------|--3-----------------|
--------------------|----------------------|--------------------|
--0-----------------|----------------------|--4-----------------|
--------------------|----------------------|--2-----------------|
--------------------|----------------------|--------------------|


  ^                NH      ^                    ^                 
  Q    H           Q       H.           Q       W                 
--0---------------------|--------------------|-------------------|
------------------------|--0------------2----|-------------------|
-------6----------------|--0-----------------|--2----------------|
------------------------|--------------------|--4----------------|
--0-------------<>12----|--------------------|-------------------|
------------------------|--3-----------------|--2----------------|


  ^                                      NH      ^                  
  H        Q    Q       Q    H           Q       H.           Q     
----------------2----|--0---------------------|--------------------|
--3------------------|------------------------|--0-----------------|
---------------------|-------6----------------|--0------------6----|
--0--------4---------|----------------<>12----|--------------------|
--2------------------|--0---------------------|--------------------|
---------------------|------------------------|--3-----------------|


   ^                                  NH                                     
   W                     H            Q        Q        H.             Q     
--(0)----------------|------------------------------|-----------------10----|
--(0)----------------|--12~----------------12g13----|--12~------------------|
---6-----------------|------------------------------|-----------------------|
---7-----------------|------------------------------|-----------------------|
---0-----------------|-------------<>19-------------|-----------------------|
---------------------|---0--------------------------|-----------------------|


                NH                                 
   H            Q    Q       H          H          
--------------------------|-----------------------|
--10~----------------7----|--8~--------10~--------|
--------------------------|-----------------------|
--------------------------|-----------------------|
-------------<>19---------|-----------------------|
---0----------------------|-----------------------|


                NH                                       
   H            Q        Q        H          Q.      E   
------------------------------|-------------10------12--|
--12~----------------12g13----|--12~--------------------|
------------------------------|-------------------------|
------------------------------|-------------------------|
-------------<>19-------------|-------------------------|
---0--------------------------|-------------------------|


   ^                                   NH          ^                   
   H.             Q        H           H           H        Q    Q     
--14~------------15----|--14--------------------|--7------------------|
-----------------------|------------------------|--7-------------7----|
-----------------------|------------<>19--------|--7------------------|
---0-------------------|------------------------|---------------------|
-----------------------|------------------------|---------------------|
-----------------------|------------------------|-----------7---------|


  ^      NH               ^                      NH                     
  Q      H        Q       H.           Q         Q    Q     Q     Q     
--0---------------7----|---------------9----|--------------------------|
-----------------------|--0-----------------|--------------------10----|
--6--------------------|--0-----------------|--------------11----------|
-------<>7-------------|--0-----------------|--<>7---------------------|
--0--------------------|--x-----------------|---------0----------------|
-----------------------|--3-----------------|--------------------------|


     NH          NH                       ^       NH    
     Q    Q      Q    Q        Q    Q     Q       Q     
----------------------9----|--------------9------------|
--<>12---------------------|--12---------10------------|
---------------------------|--------9-----9------------|
---------------<>7---------|-------------------<>19----|
---------------------------|---0-----------------------|
----------7----------------|---------------------------|


   ^            NH                                    NH                   
   Q    Q       Q    Q       Q    Q    H              Q    Q    Q    Q     
--10----9------------5----|--7---------9--------|-------------------------|
---0---------<>12---------|---------------------|--<>12-------------------|
---0----------------------|-------6-------------|---------------4---------|
--------------------------|---------------------|-------------------------|
--------------------------|--0------------------|----------2---------2----|
--------------------------|---------------------|-------------------------|


            ^           ^         ^           ^                   
  Q    Q    H           Q    Q    H           Q    Q    H         
--2---------0--------|---------------------|---------------------|
------------0--------|--3----2----0--------|---------------------|
------------4--------|--0---------0--------|--2------------------|
------------4--------|--0------------------|------------4--------|
-------2-------------|---------------------|-------4-------------|
---------------------|--3---------3--------|--2------------------|


                                                     ^                    
  Q    Q    Q      Q        Q     Q     H            Q    Q    Q    Q     
-------------------------|------------------------|----------------------|
-------------------------|------------------------|--3----2----0---------|
--0----------------------|-------------(0)--------|----------------------|
-------4----2~-----------|--4p----------0---------|--0--------------0----|
------------------(2)----|--------0---------------|--2---------2---------|
--0----------------------|------------------------|----------------------|


  Q    Q    H           Q    Q    H           Q     Q      H          
--0------------------|---------------------|-------------------------|
------------2--------|--0------------------|-------------------------|
-------2-------------|-------2----0--------|--2----------------------|
---------------------|---------------------|--------------(4)--------|
--0------------------|---------------------|-------(4)---------------|
---------------------|--3------------------|--2----------------------|


                                     ^           ^         ^         
  Q    Q    Q     Q        Q    Q    H           Q    Q    H         
------------------------|------------2--------|--3----2----0--------|
--3----2----0-----------|--2---------2--------|--0---------0--------|
------------------------|------------2--------|--0---------0--------|
-----------------(0)----|------------4--------|--x---------x--------|
------------------------|-------4-------------|--2---------2--------|
--3---------------------|--2------------------|--0---------0--------|


  v         v            ^                                v          
  Q    Q    Q    Q       Q    Q    Q    Q       Q    Q    Q    Q     
--2-------------------|----------------------|--0---------2---------|
--3---------3---------|--3----2----0---------|------------2---------|
-------2----2----2----|----------------------|-------2---------2----|
--0---------0---------|--4--------------4----|----------------------|
----------------------|--2---------2---------|--0---------0---------|
----------------------|----------------------|----------------------|


  ^         ^                                                            
  Q    Q    H           Q    Q    H           Q       E  E  E  E  E  E   
--3----2----0--------|---------------------|-------|--------------0-----|
--0---------0--------|--2------------------|--0----|--------0-----------|
--0---------0--------|------------2--------|-------|-----7-----7-----7--|
--0---------0--------|------------4--------|-------|--9-----------------|
--x---------x--------|-------4-------------|-------|--------------------|
--3---------3--------|--2------------------|-------|--------------------|


              ^          NH                   NH     
  E  E  E  E  Q          E  E  E  E  E  E     E  E   
--------------0----|-----------------0--------------|
--------0-----0----|--<>12--------------------------|
-----7-----7-------|--------7-----7-----7--------7--|
--9----------------|-----9-----9-----------<>19-----|
-------------------|--------------------------------|
-------------------|--------------------------------|


     NH                            NH       NH             NH     
     E  E  E  E  E  E  E  E        E  E     E  E  E  E     E  E   
-----------------9-----------|--------9--------------------------|
--<>12-----------------------|-----------<>12--------------------|
--------7-----7-----7-----7--|--<>19-----------7-----7--------7--|
-----------9-----------9-----|-----9--------------9-----<>19-----|
-----------------------------|-----------------------------------|
-----------------------------|-----------------------------------|


     NH                            NH                   NH     
     E  E  E  E  E  E  E  E        E  E  E  E  E  E     E  E   
--------------0-----------0--|--<>12--------------------------|
--<>12-----------------0-----|-----------------0-----------0--|
--------7-----------7--------|--------7-----7-----7--<>19-----|
-----------9-----7-----------|-----9-----9--------------------|
-----------------------------|--------------------------------|
-----------------------------|--------------------------------|


     NH             NH                NH       NH             NH     
     E  E  E  E     E  E  E  E        E  E     E  E  E  E     E  E   
--<>12--------------------------|--------9--------------------------|
-----------------<>19-----------|-----------<>12--------------------|
--------7-----7--------7-----7--|--<>19-----------7-----7--------7--|
-----------9--------------9-----|-----9--------------9-----<>19-----|
--------------------------------|-----------------------------------|
--------------------------------|-----------------------------------|


     NH                           NH    NH             NH    
     E  E  E  E  E  E  Q          E     E  H           Q     
--------------0-------------|-------------------------------|
--<>12-----------------0----|--------------7----------------|
--------7-----------7-------|--------<>12-------------------|
-----------9-----7----------|--<>19-----------------<>12----|
----------------------------|-----7-------------------------|
----------------------------|-------------------------------|


              NH             NH                      ^        ^         
  H           H              E  E  H         Q       H        H         
--0--------------------|-----------0--------------|--0--------0--------|
-----------------------|--------7-----------------|--------------------|
-----------<>12--------|--<>12--------------------|--7--------6--------|
-----------------------|--------------------12----|--------------------|
--7--------------------|-----7--------------------|--0-----------------|
-----------------------|--------------------------|--------------------|


     NH       NH          NH         NH          NH        
     E  E     H           Q          H           H         
--------9----------------------|--------------------------|
-----------<>12----------------|--<>12--------------------|
--<>19-------------------------|--------------<>12--------|
-----------------------<>19----|--------------------------|
-----7-------------------------|-----7--------------------|
-------------------------------|--------------------------|


     NH                 NH      ^        ^         
     E  E  Q    Q       Q       H        H         
-----------0-----------------|--0--------0--------|
--------7--------------------|--------------------|
--<>12-----------------------|--7--------6--------|
---------------------<>12----|--------------------|
-----7-----------------------|--0--------0--------|
----------------0------------|--------------------|


  Q    Q.     S  S  S S S S     S S E  H        Q     
--------------------------0h-|--2--------------------|
--0---------------------0----|----0-L--L--------0----|
----------------------0------|-----------------------|
--------------0h-2h-4--------|-----------------------|
-----------------------------|-----------------------|
-------0---------------------|-----------------------|


        ^                          ^           ^             ^                  
  E  E  E  E  E  E  E  E     E  E  E  E  E  E  Q       E  E  E  E  E  E  E  E   
--------0-----------------|--------0-----------0----|--------0-----------------|
--------------------------|--------0-----------0----|--3--2--0-----------------|
--------4-----------2-----|--4-----------6----------|--------------------2-----|
-----4-----4-----4-----4--|-----4-----4-----4-------|-----------4-----4-----4--|
--2-----------2-----------|--2----------------------|--2-----------2-----------|
--------------------------|-------------------------|--------------------------|


        ^           ^             ^                          ^           ^     
  E  E  E  E  E  E  Q       E  E  E  E  E  E  E  E     E  E  E  E  E  E  Q     
--------0-----------0----|--0-----------------------|--0-----------2----------|
--------0-----------0----|--------0-----------3-----|--------0-----------0----|
--4----------------------|--------4-----------------|--------4-----------4----|
-----4-----4-----4-------|-----4-----4-----4-----4--|-----4-----4-----4-------|
--2-----------2----------|--2-----------2-----------|--2----------------------|
-------------------------|--------------------------|-------------------------|


        ^                          ^           ^                            
  E  E  E  E  E  E  E  E     E  E  E  E  E  E  Q       E  E  H        Q     
--------0-----------------|--------0-----------0----|----------------------|
--3--2--0-----------------|--------0-----------0----|----------------------|
--------------------2-----|--4-----4-----------4----|--2--0----------------|
-----------4-----4-----4--|-----4-----4-----4-------|--------4--------0----|
--2-----------2-----------|--2-----------2----------|----------------------|
--------------------------|-------------------------|--0-------------------|


  ^           T                                   ^        ^         
  H           H           E  E  H         Q       H        H         
-----------------------|-----------------------|--0--------0--------|
-----------<>12--------|-----------------------|--3--------2--------|
-----------<>12--------|--0--------------------|--2--------2--------|
--2-----------2--------|-----4--2~--------0----|--2--------2--------|
--2-----------2--------|-----------------------|--0--------0--------|
--0-----------0--------|--0--------------------|--------------------|


  E  E  H         Q       H        H            E  E  H         Q     
-----------------------|---------------------|-----------------------|
--3--2--0~-------------|--0------------------|-----------------------|
------------------2----|-----------0~--------|--0--------------------|
-----------------------|---------------------|-----4--2~--------0----|
-----------------------|---------------------|-----------------------|
--0--------------------|--0------------------|--0--------------------|


  ^        ^                                   NH  
  H        H           Q.     E  E   E  E      E   
--0--------0--------|------------2------2h--------|
--3--------2--------|--0------0-------------------|
--2--------2--------|-----------------------<>12--|
--2--------2--------|-----------------------------|
--0--------0--------|---------------19------------|
--------------------|--0--------------------------|


                                                  NH         
  Q    S S S S S S S S S S S S    Q.     E  E     E  E   E   
--0----------------------------|------------0--------0h--2--|
-------------------------------|---------0------------------|
-------------------------------|----------------------------|
-------------------------------|---------------<>12---------|
-------------------------------|----------------------------|
-------0-0-0-0-0-0-0-0-0-0-0-0-|--0-------------------------|


                                                          NH  
  Q    S S S S S S S S S S S S    Q.     E  E   E  E      E   
-------------------------------|------------2------2h--------|
--0----------------------------|---------0-------------------|
-------------------------------|-----------------------<>12--|
-------------------------------|-----------------------------|
-------------------------------|---------------19------------|
-------0-0-0-0-0-0-0-0-0-0-0-0-|--0--------------------------|


  H.           Q       H        H           H        H         
--0-----------------|--------------------|--------------------|
---------------0----|-----------0--------|--------------------|
--------------------|--------------------|--2-----------------|
--------------------|--------------------|--4--------2--------|
--------------------|--2-----------------|--------------------|
--------------------|--------------------|--------------------|


                      ^                   ^         ^         
  W                   W                   Q    Q    H         
-------------------|-------------------|---------------------|
-------------------|--0----------------|------------2--------|
--2----------------|--0----------------|--2---------2--------|
--4----------------|--0----------------|--4---------4--------|
-------------------|-------------------|-------4-------------|
--2----------------|--3----------------|--2------------------|


  ^        ^               NH   PM      NH                               
  H        Q    Q          Q    Q       H           Q    Q    Q    Q     
-----------0----2----|---------------------------|--5--------------2----|
--0--------0---------|---------------<>12--------|------------3---------|
--0--------0---------|--<>12---------------------|-------2--------------|
-----------2---------|---------------------------|--0-------------------|
-----------2---------|---------------------------|----------------------|
--0--------0---------|----------0----------------|----------------------|


  H        H           H.           Q       H        Q    Q     
--------------------|--0-----------------|---------------------|
--3-----------------|--------------------|----------------7----|
-----------0--------|---------------6----|--7------------------|
--------------------|--------------------|---------------------|
--------------------|--4-----------------|---------------------|
--------------------|--------------------|-----------7---------|


            ^           ^         ^                      ^         
  Q    Q    H           Q    Q    Q    Q       Q    Q    H         
--0------------------|----------------------|--0------------------|
---------------------|------------7---------|---------------------|
------------6--------|--7---------7---------|------------6--------|
------------7--------|--0---------0----0----|------------7--------|
-------4-------------|----------------------|-------4----4--------|
---------------------|-------7--------------|---------------------|


  ^                                                             ^     
  H.           Q       Q       E  E  E  E  E  E     E  E  E  E  Q     
--0-----------------|-------|--------------0-----|--------------0----|
--0-----------------|--0----|--------0-----------|--------0-----0----|
--6-----------------|-------|-----7-----7-----7--|-----7-----7-------|
--7------------7----|-------|--9-----------------|--9----------------|
--0-----------------|-------|--------------------|-------------------|
--0-----------------|-------|--------------------|-------------------|


                                      ^                NH             NH    
  E  E  E  E  E  E     E  E  E  E     Q       E  E     E  E  E  E     Q     
--------------0-----|--------------<>12----|--------<>12-----------<>12----|
--------0-----------|--------0-----<>12----|--------<>12-----------<>12----|
-----7-----7-----7--|-----7-----7----------|-----7--------7-----7----------|
--9-----------------|--9-------------------|--9--------------9-------------|
--------------------|----------------------|-------------------------------|
--------------------|----------------------|-------------------------------|


           NH             NH               NH             NH    
  E  E     E  E  E  E     Q       E  E     E  E  E  E     Q     
--------<>12-----------<>12----|--------<>12-----------<>12----|
--------<>12-----------<>12----|--------<>12-----------<>12----|
-----7--------7-----7----------|-----7--------7-----7----------|
--9--------------9-------------|--9--------------9-------------|
-------------------------------|-------------------------------|
-------------------------------|-------------------------------|


  W                  
-------------------||
-------------------||
-------------------||
--9----------------||
-------------------||
-------------------|| 
        
Comments

@Choogly (July 21, 2016 at 3:11 AM)

...Bhael tab?

sees harmonics throughout

Bhael tab.