Gametabs
Home
Tabs
Random

Southern Front Porch Whistler

Average rating: 5.000

4 ratings

Composer:

Tabber:

Style:

Instrument:

Created: October 18, 2009 at 12:00 AM

            Southern Front Porch Whistler                           
~The Neverhood~ 
Composed by: Terry Scott Taylor
Arranged by: kenor

Rhytm: 12/8 metrum, triplets
Capo 2


     Q    E  Q    E  Q    E  Q    E     Q    E  Q    E  Q    E  Q.      
E||------------------0----2-------3--|--L------------------------------|
B||--0-------2-----------------------|---------------------------------|
G||---------------1------------------|----------3------------0---------|
D||----------2---------------2-------|-------2---------------2---------|
A||-------2----------2---------------|--3---------------3-------3------|
E||--0-------------------------------|---------------3-----------------|


     Q    E  Q    E  Q    E  Q    E     Q    E  E  E  E  Q    E  Q    E   
E||------------------0----2-------3--|--L----------5--3--2---------------|
B||--0-------2-----------------------|---------------------------4-------|
G||---------------1------------------|----------0-------------2-------2--|
D||----------2---------------2-------|-------2---------------------------|
A||-------2----------2---------------|--3----------------2---------------|
E||--0-------------------------------|-----------------------------------|


     Q    E  Q    E  Q    E  Q    E     Q    E  Q    E  Q    E  Q.      
E||------------------0----2-------3--|--L------------------------------|
B||--0-------2-----------------------|---------------------------------|
G||---------------1------------------|----------3------------0---------|
D||----------2---------------2-------|-------2---------------2---------|
A||-------2----------2---------------|--3---------------3-------3------|
E||--0-------------------------------|---------------3-----------------|


     Q    E  Q    E  Q    E  Q    E     Q    E  Q    E  Q.     E  Q     
E||--3----2--0-------0----2-------0--|--L----------------------0-------|
B||---------------2------------------|-------------------------0-------|
G||----------0-----------------------|-------------------------1-------|
D||--------------------------1-------|----------2-------2------2-------|
A||--3---------------2---------------|-------2-------2-----------------|
E||----------------------------------|--0------------------------------|


     Q    E  Q    E  Q    E  Q    E     Q    E  Q    E  Q    E  Q.      
E||------------------0----2-------3--|--L------------------------------|
B||--0-------2-----------------------|---------------------------------|
G||---------------1------------------|----------3------------0---------|
D||----------2---------------2-------|-------2---------------2---------|
A||-------2----------2---------------|--3---------------3-------3------|
E||--0-------------------------------|---------------3-----------------|


     Q    E  Q    E  Q    E  Q    E     Q    E  Q    E  Q    E  Q    E   
E||------------------0----2-------3--|--L------------2------------------|
B||--0-------2-----------------------|--------------------------4-------|
G||---------------1------------------|----------3------------2-------2--|
D||----------2---------------2-------|-------2--------------------------|
A||-------2----------2---------------|--3---------------2---------------|
E||--0-------------------------------|----------------------------------|


     Q    E  Q    E  Q    E  Q    E     Q    E  Q    E  Q    E  Q.      
E||------------------0----2-------3--|--L------------------------------|
B||--0-------2-----------------------|---------------------------------|
G||---------------1------------------|----------3------------0---------|
D||----------2---------------2-------|-------2---------------2---------|
A||-------2----------2---------------|--3---------------3-------3------|
E||--0-------------------------------|---------------3-----------------|


     Q    E  Q    E  Q    E  Q    E     Q    E  Q    E  Q.     Q.      
E||--3----2--0-------0----2-------0--|--L-----------------------------|
B||---------------2------------------|--------------------------------|
G||----------0-----------------------|-------------------------1------|
D||--------------------------1-------|----------2-------2------2------|
A||--3---------------2---------------|-------2-------2----------------|
E||----------------------------------|--0-----------------------------|


     Q    E  Q    E  Q    E  Q    E     Q    E  Q    E  Q    E  Q    E   
E||--7-----------------------9-------|--0-------------------------------|
B||------------------0---------------|------------------2---------------|
G||----------------------------------|----------1------------1-------1--|
D||----------6--------------------6--|-------2-------2----------2-------|
A||-------7-------7-------7----------|--4-------------------------------|
E||--0-------------------------------|----------------------------------|


     Q    E  Q    E  Q    E  Q    E     Q    E  Q    E  Q    E  Q    E   
E||--3----2--0-------0----2-------4--|--L-----------------------0-------|
B||---------------2------------------|--------------------------0-------|
G||----------0-----------------------|------------------1---------------|
D||--------------------------1-------|----------2-----------------------|
A||--3---------------2---------------|-------2-------2-------2-------2--|
E||----------------------------------|--0-------------------------------|


     Q    E  Q    E  Q    E  Q    E     Q    E  Q    E  Q    E  Q    E   
E||--7-----------------------9-------|--0-------------------------------|
B||------------------0---------------|------------------2---------------|
G||----------------------------------|----------1------------1-------1--|
D||----------6--------------------6--|-------2-------2----------2-------|
A||-------7-------7-------7----------|--4-------------------------------|
E||--0-------------------------------|----------------------------------|


     Q    E  Q    E  Q    E  Q    E     Q    E  Q    E  Q.     E  Q     
E||--3----2--0-------0----2-------0--|--L----------------------0-------|
B||---------------2------------------|-------------------------0-------|
G||----------0-----------------------|-------------------------1-------|
D||--------------------------1-------|----------2-------2------2-------|
A||--3---------------2---------------|-------2-------2-----------------|
E||----------------------------------|--0------------------------------|


     Q    E  Q    E  Q    E  Q    E     Q    E  Q    E  Q    E  Q.      
E||------------------0----2-------3--|--L------------------------------|
B||--0-------2-----------------------|---------------------------------|
G||---------------1------------------|----------3------------0---------|
D||----------2---------------2-------|-------2---------------2---------|
A||-------2----------2---------------|--3---------------3-------3------|
E||--0-------------------------------|---------------3-----------------|


     Q    E  Q    E  Q    E  Q    E     Q    E  Q    E  Q    E  Q    E   
E||------------------0----2-------3--|--L------------2------------------|
B||--0-------2-----------------------|--------------------------4-------|
G||---------------1------------------|----------3------------2-------2--|
D||----------2---------------2-------|-------2--------------------------|
A||-------2----------2---------------|--3---------------2---------------|
E||--0-------------------------------|----------------------------------|


     Q    E  Q    E  Q    E  Q    E     E  E  E  Q    E  Q    E  Q    E   
E||------------------0----2-------3--|--L--5--3--------------------------|
B||--0-------2-----------------------|-----------------------------------|
G||---------------1------------------|----------------3----------0-------|
D||----------2---------------2-------|-----------2---------------2-------|
A||-------2----------2---------------|--3---------------------3-------3--|
E||--0-------------------------------|-------------------3---------------|


     Q    E  Q    E  Q    E  Q    E     Q    E  Q    E  Q    E  Q.      
E||--3----2--0-------0----2----------|---------------------------------|
B||---------------2------------------|---------------------------------|
G||----------0-----------------------|--0------------------------------|
D||--------------------------1-------|-------4--2-------2----4---------|
A||--3---------------2---------------|--3------------4--2--------------|
E||----------------------------------|--------------------------x------|


     Q    E  Q    E  Q    E  Q.        Q    E  E  Q    E  Q    Q.       
E||--3----2--0-------0----2---------|--0---------------0--------------||
B||---------------2-----------------|----------0-------0--------------||
G||----------0----------------------|------------------1--------------||
D||--------------------------1------|-------2--1----------------------||
A||--3---------------2--------------|----------2----------------------||
E||---------------------------------|--0---------------0--------------||


Legend:
-------
Q - quarter
E - 8th
. - note dotted
L - tied note
x - dead note

        
Comments

@Mash (October 18, 2009 at 10:30 PM)

make love to me