Gametabs
Home
Tabs
Random

Main Theme

Average rating: No ratings

Composer:

Tabber:

Style:

Instrument:

Created: December 20, 2021 at 12:00 AM

            this is my first tab, so sorry if there are mistakes.



e|---------------------------------------------------------------|
B|---------------------------------------------------------------|
G|---1–--3-4-1-----------------------1---3-4-1--------4-6--------|
D|----------------4-2---------------------------4-2--------------|
A|-------------------------7-5-----------------------------------|
E|---------------------------------------------------------------|

e|--------------------------------------5-3-0--------------------|
B|----5-5--0-2/1-------4---0-1-2----4-0------------4-2-----4-2---|
G|--4--------------------------------------------2--------1------|
D|---------------------------------------------------------------|
A|---------------------------------------------------------------|
E|---------------------------------------------------------------|

e|------(12)-----------------------------------------------------|
B|--4-2----------7-9-10--7-5–--3----L--2-0------7-9-10--7-5-3-5-7|
G|-1-------------------------------------------------------------|
D|---------------------------------------------------------------|
A|---------------------------------------------------------------|
E|---------------------------------------------------------------|

e|---------------------------------------------------------------|
B|--4-3----1-2-4---3-4----5--------2-3----3-4-5---5-6-7-6r-------|
G|-3------3-------3--------3-5-6------------------5-6-7-6r-------|
D|---------------------------------------------------------------|
A|---------------------------------------------------------------|
E|---------------------------------------------------------------|

e|---x-----------------------------------------------------------|
B|---x----------------------------------------------------6-4-1--|
G|---x------3-2-7---L-5-2---2-----2--------2---10-9-2------------|
D|---x------------------------0-2---0-3-4---0--------------------|
A|---x-----------------------------------------------------------|
E|---x-----------------------------------------------------------|

e|------------------------9-7-4----------------------------------|
B|----L-----6-0---10-9-2-----------------------------------------|
G|------------------------------9-0-5---9-0-5-7---9-0-12-11-4----|
D|---------------------------------------------------------------|
A|---------------------------------------------------------------|
E|---------------------------------------------------------------|

e|---------------------------------------------------------------|
B|---------------------------------------------------------------|
G|--4---6-7--9-----0------0----3-0----2-2-2---2---7-7---4-5-7-8-9|
D|------------------0-3----0-3------4-------4--------------------|
A|---------------------------------------------------------------|
E|---------------------------------------------------------------|

e|-----------x---3------------
B|--–--------x----------------
G|--8-12----x----------------
D|-----------x----------------
A|-----------x----------------
E|-----------x----------------



_________
x = mute
() = optional
r = let ring
/ = slide
L = hold
        
Comments

No comments yet