Gametabs
Home
Tabs
Random

Shana's Theme

Average rating: 5.000

1 ratings

Composer:

Tabber:

Style:

Instrument:

Created: July 26, 2021 at 12:00 AM

            Title: Shana's Theme
Game: The Legend of Dragoon
Tab author: Matias Lavik 

E|-5-------------------------|-5------|-5-------------------------|-5------|-5-------------------------|
B|-6-------------5---6---8---|-5------|-6-------------5---6---8---|-6------|-6-------------5---6---8---|
G|-7----7----7---------------|-5------|-7----7----7---------------|-5------|-7----7----7---------------|
D|-8-------------------------|-7------|-5-------------------------|--------|-8-------------------------|
A|---------------------------|--------|---------------------------|-8------|---------------------------|
E|---------------------------|--------|---------------------------|--------|---------------------------|


E|-10--8-----------|-5-------------------------|-5------|-6-----------10-------10---|
B|-8---------------|-6-------------5---6---8---|-6------|-8-------8-----------------|
G|-9---------------|-7----7----7---------------|-5------|-8---8-----------8---------|
D|-7---------------|-5-------------------------|--------|---------------------------|
A|-----------------|---------------------------|-8------|-6-------------------------|
E|-----------------|---------------------------|--------|---------------------------|


E|-5-----------------5---|-4-----------8--------8----|-3------4---3---|----------------------3----|
B|-6---------6---8-------|-6-------6-----------------|-4--------------|-6-------3---5---6---------|
G|-7---------------------|-6---6-----------6---------|-5--------------|-----3---------------------|
D|-----------------------|---------------------------|----------------|-5-------------------------|
A|-5---------------------|-4-------------------------|-3--------------|---------------------------|
E|-----------------------|---------------------------|----------------|---------------------------|


E|-5------------------------------|-5------------------|-5-----6--5--------|
B|-------------5---6----8---6--8--|-6------------6--8--|-5-----------8-----|
G|-----5---7----------------------|-7------------------|-5-----------------|
D|-7------------------------------|-8------------------|-------------------|
A|--------------------------------|--------------------|-------------------|
E|--------------------------------|--------------------|-------------------|



        
Comments

No comments yet