Gametabs
Home
Tabs
Random

Seles

Average rating: 5.000

1 ratings

Composer:

Tabber:

Style:

Instrument:

Created: June 05, 2011 at 12:00 AM

            Melody

E |----------------|--5L----------------------5-------------------------|
B |--5--8--7--3----|--------------------------------------------7--8----|
G |----------------|----------------------------------------------------|
D |----------------|----------------------------------------------------|
A |----------------|----------------------------------------------------|
E |----------------|----------------------------------------------------|


----------------------------|-------|----------------------------|
--7L----------7--5----------|--5L---|--5-----------5--8--7--3----|
--------------------7--4----|-------|----------------------------|
----------------------------|-------|----------------------------|
----------------------------|-------|----------------------------|
----------------------------|-------|----------------------------|


--7-----------------5--3----|
----------------------------|
----------------------------|
----------------------------|
----------------------------|
----------------------------|


--6-----------------8--10-8-----6-----5-------------|-------|
--------------------------------------------6-------|--8L---|
----------------------------------------------------|-------|
----------------------------------------------------|-------|
----------------------------------------------------|-------|
----------------------------------------------------|-------|


-----------------------8----|--10L---------10-8----------|
--8-----------8--10-11------|--------------------11-10L--|
----------------------------|----------------------------|
----------------------------|----------------------------|
----------------------------|----------------------------|
----------------------------|----------------------------|


-----------------------8----|--10L---------10-8----------|
--10----------------11------|--------------------11-10L--|
----------------------------|----------------------------|
----------------------------|----------------------------|
----------------------------|----------------------------|
----------------------------|----------------------------|


-----------------------8----|--10----------------13-15---|--13------------|
--10----------------11------|----------------------------|-----15-13------|
----------------------------|----------------------------|-----------14---|
----------------------------|----------------------------|----------------|
----------------------------|----------------------------|----------------|
----------------------------|----------------------------|----------------|


-------|----------------------------|
-------|--------------5--8--7--3----|
--12L--|--12------------------------|
-------|----------------------------|
-------|----------------------------|
-------|----------------------------|


--5L----------------------5-------------------------|
--------------------------------------------7--8----|
----------------------------------------------------|
----------------------------------------------------|
----------------------------------------------------|
----------------------------------------------------|


----------------------------|-------|----------------------------|
--7L----------7--5----------|--5L---|--5-----------5--8--7--3----|
--------------------7--4----|-------|----------------------------|
----------------------------|-------|----------------------------|
----------------------------|-------|----------------------------|
----------------------------|-------|----------------------------|


--7-----------------5--3----|
----------------------------|
----------------------------|
----------------------------|
----------------------------|
----------------------------|


--6-----------------8--10-8-----6-----5-------------|-------|
--------------------------------------------6-------|--8L---|
----------------------------------------------------|-------|
----------------------------------------------------|-------|
----------------------------------------------------|-------|
----------------------------------------------------|-------|


-----------------------8----|--10L---------10-8----------|
--8-----------8--10-11------|--------------------11-10L--|
----------------------------|----------------------------|
----------------------------|----------------------------|
----------------------------|----------------------------|
----------------------------|----------------------------|


-----------------------8----|--10L---------10-8----------|
--10----------------11------|--------------------11-10L--|
----------------------------|----------------------------|
----------------------------|----------------------------|
----------------------------|----------------------------|
----------------------------|----------------------------|


-----------------------8----|--10----------------13-15---|--13------------|
--10----------------11------|----------------------------|-----15-13------|
----------------------------|----------------------------|-----------14---|
----------------------------|----------------------------|----------------|
----------------------------|----------------------------|----------------|
----------------------------|----------------------------|----------------|


-------|----------------------------|----||
-------|--------------5--8--7--3----|----||
--12L--|--12------------------------|----||
-------|----------------------------|----||
-------|----------------------------|----||
-------|----------------------------|----||

Harmony

E |----------------|--12L---------------------12------------------------|
B |--12-15-14-10---|--------------------------------------------14-15---|
G |----------------|----------------------------------------------------|
D |----------------|----------------------------------------------------|
A |----------------|----------------------------------------------------|
E |----------------|----------------------------------------------------|


----------------------------|-------|----------------------------|
--14L---------14-12-10------|--12L--|--12----------12-15-14-10---|
-----------------------11---|-------|----------------------------|
----------------------------|-------|----------------------------|
----------------------------|-------|----------------------------|
----------------------------|-------|----------------------------|


--14----------------12-10---|
----------------------------|
----------------------------|
----------------------------|
----------------------------|
----------------------------|


--13----------------15-17-15----13----12------------|-------|----------------|
--------------------------------------------13------|--15L--|--15------------|
----------------------------------------------------|-------|----------------|
----------------------------------------------------|-------|----------------|
----------------------------------------------------|-------|----------------|
----------------------------------------------------|-------|----------------|


--17L---------17-15-13-12L--|--12------------|--17L---------17-15-13-12L--|
----------------------------|----------------|----------------------------|
----------------------------|----------------|----------------------------|
----------------------------|----------------|----------------------------|
----------------------------|----------------|----------------------------|
----------------------------|----------------|----------------------------|


--12------------|--17----------------20-22---|--20-17-15-13---|-------|
----------------|----------------------------|----------------|--15L--|
----------------|----------------------------|----------------|-------|
----------------|----------------------------|----------------|-------|
----------------|----------------------------|----------------|-------|
----------------|----------------------------|----------------|-------|


----------------------------|
--15----------12-15-14-10---|
----------------------------|
----------------------------|
----------------------------|
----------------------------|


--12L---------------------12------------------------|
--------------------------------------------14-15---|
----------------------------------------------------|
----------------------------------------------------|
----------------------------------------------------|
----------------------------------------------------|


----------------------------|-------|----------------------------|
--14L---------14-12-10------|--12L--|--12----------12-15-14-10---|
-----------------------11---|-------|----------------------------|
----------------------------|-------|----------------------------|
----------------------------|-------|----------------------------|
----------------------------|-------|----------------------------|


--14----------------12-10---|
----------------------------|
----------------------------|
----------------------------|
----------------------------|
----------------------------|


--13----------------15-17-15----13----12------------|-------|----------------|
--------------------------------------------13------|--15L--|--15------------|
----------------------------------------------------|-------|----------------|
----------------------------------------------------|-------|----------------|
----------------------------------------------------|-------|----------------|
----------------------------------------------------|-------|----------------|


--17L---------17-15-13-12L--|--12------------|--17L---------17-15-13-12L--|
----------------------------|----------------|----------------------------|
----------------------------|----------------|----------------------------|
----------------------------|----------------|----------------------------|
----------------------------|----------------|----------------------------|
----------------------------|----------------|----------------------------|


--12------------|--17----------------20-22---|--20-17-15-13---|-------|
----------------|----------------------------|----------------|--15L--|
----------------|----------------------------|----------------|-------|
----------------|----------------------------|----------------|-------|
----------------|----------------------------|----------------|-------|
----------------|----------------------------|----------------|-------|


----------------------------|----||
--15----------12-15-14-10---|----||
----------------------------|----||
----------------------------|----||
----------------------------|----||
----------------------------|----||

        
Comments

No comments yet