Gametabs
Home
Tabs
Random

Ne!

Average rating: No ratings

Composer:

Tabber:

Style:

Instrument:

Created: December 29, 2011 at 12:00 AM

            The King of Fighters ’94		Ne!
The King of Soundtracks 94-13, by Atlus
Tabbed by finalthrash
12/22/11
Standard tuning
Palm mutes are underlined with P's

E	------------------------------------------------------------------------------------------
B	------------------------------------------------------------------------------------------
G	------------------------------------------------------------------------------------------
D	------------------------------------------------------------------------------------------
A	10----------10-----------8—10---10-10-10-8-8-10—--8-8--------8---------7-8—--8—8-8—7-7-8--
E	8----8-8----8-----8-8----6—8----8--8—-8—-6-6-8—---6-6—--6-6--6---6-6---5-6—--6—6—6—5-5-6--
             P P          P P                                   P P      P P    

E	-------------------------------------------------------------------------------------
B	-------------------------------------------------------------------------------------
G	-------------------------------------------------------------------------------------
D	---------------------------------------------------------------------------8-10------
A	7-7-------7-------6-7—--7-7-7-6-6-7----5-------5-----3-5----3-------3------6-8-------
E	5-5—5-5---5---5-5—4-5—--5-5-5-4-4-5----3—3-3---3—3-3—1-3----1—1-1---1-1-1------------
            P P       P P                        P P     P P          P P     P P

E	--------------------------------
B	--------------------------------
G	--------------------------------
D	-----8----------10—12--8—8------
A	10---6----10----8—-10--6—6—10---
E	8---------8----------------8----


E	--------------------------------------------------
B	--------------------------------------------------
G	--------------------------------------------------
D	--------------------------------------------------
A	10----10---8----8----6----8------8-----6-8-8-9-9--
E	8-----8----6----6----4----6—6-6--6-6-6-4-6-6-7-7--
                                    P P    P P  

E	---------------------------------------------------------
B	---------------------------------------------------------
G	---------------------------------------------------------
D	---------------------------------------------------------
A	10-------8--------3----------6---------8--------9--------
E	8----8-8-6----6-6-1------1-1-4-----4-4-6----6-6-7---7-7--
             P P      P P        P P       P P      P P     P P
        
Comments

@LynyrdSkynyrd4 (December 29, 2011 at 7:50 PM)

I always liked this song. Thanks for tabbing


@finalthrash (January 03, 2012 at 4:01 AM)

you're welcome