Gametabs
Home
Tabs
Random

Main Theme

Average rating: 4.333

3 ratings

Composer:

Tabber:

Style:

Instrument:

Created: November 09, 2013 at 12:00 AM

            Godfather Theme
01/11/13

E||-------------------------|-----------------------|----------------|
B||---1-4-3-1-4-1-3-1-------|---1-4-3-1-4-1-3-1-----|--------------0-|
G||-0-----------------1-3-0-|-0-----------------0---|------------1---|
D||-------------------------|---------------------4-|-3--------3-----|
A||-------------------------|-----------------------|----------------|
E||-------------------------|-----------------------|----------------|

E||----------------|----------------|-----------------|----------------|-----------------|
B||-3------------0-|-1--------------|-----------------|----------1-1-0-|----------3--1---|
G||------------1---|--------------3-|-1-0-3-1-1-0-0---|----------------|-3-------------1-|
D||----------3-----|------------1---|-----------------|----------------|-----------------|
A||----------------|----------3-----|---------------2-|-3--------------|-----------------|
E||----------------|----------------|-----------------|----------------|-----------------|

E||----------------|----------------|----------------|-----------------|----------------|
B||----------------|----------------|------------1-4-|-3-1-4-1-3-1-----|------------1-4-|
G||-0--------0-3-0-|------------1---|-0--------0-----|-------------1-3-|-0--------0-----|
D||----------------|-3--------3---4-|----------------|-----------------|----------------|
A||----------------|----------------|----------------|-----------------|----------------|
E||----------------|----------------|----------------|-----------------|----------------|

E||-----------------|----------------|----------------|----------------|-----------------|------------|
B||-3-1-4-1-3-1-----|--------------0-|-3------------0-|-1--------------|---------------0-|-1----------|
G||-------------0---|------------1---|------------1---|--------------3-|-1-0-3-1-1-0-0---|------------|
D||---------------4-|-3--------3-----|----------3-----|------------1---|-----------------|------------|
A||-----------------|----------------|----------------|----------3-----|-----------------|------------|
E||-----------------|----------------|----------------|----------------|-----------------|------------|



        
Comments

@Pianto81 (August 03, 2021 at 1:47 PM)

This music is awesome. Thanks for tabbing it. It's just a bit disapointing that there is no pdf or gp5 file...