Gametabs
Home
Tabs
Random

Main Theme

Average rating: 5.000

1 ratings

Composer:

Tabber:

Style:

Instrument:

Created: May 18, 2011 at 12:00 AM

            Main Theme (Call of Magic/Nerevar Rising)
The Elder Scrolls III: Morrowind
Jeremy Soule
Arranged and tabbed by OggirtMoonfrad (Misha Colbourne)
18/05/2011

(Capo 2)



     H        E  E     H        E  E      H         E  E     Q.     S S E  E   
E||-----------------|-----------------|---0---------0--3--|---------0---------|
B||--------------0--|--1--------1--3--|--(1)--------------|--3--------3-1--0--|
G||-----------2-----|-----------------|-------------------|-------------------|
D||-----------------|-----------------|-------------------|-------------------|
A||-----------------|-----------------|-------------------|-------------------|
E||-----------------|-----------------|-------------------|-------------------|


   H         E  E     E   E    Q     E  E     E   E    Q     E  E   
-------------------|-----------------------|--0--------------0--3--|
----------------0--|--1--------------1--3--|--1--(1)--(1)----------|
---2---------2-----|--2--(2)--(2)----------|-----------------------|
--(3)--------------|-----------------------|-----------------------|
-------------------|-----------------------|-----------------------|
-------------------|-----------------------|-----------------------|


  E   E    Q     E.  S    E   E    Q     E.  S    Q    Q    Q     
--5--------------3---7-|--5--------------5---7-|--8----7----5----|
--6--(6)--(6)----------|--3--(3)--(3)----------|--5----3----1----|
-----------------------|-----------------------|-----------------|
-----------------------|-----------------------|-----------------|
-----------------------|-----------------------|-----------------|
-----------------------|-----------------------|-----------------|


  Q    Q    Q       H        E  E     H        E  E     E  E  E  E  E  E   
--3----1----0----|--------------0--|-----------------|--------------------|
--0--------------|--3--------1-----|--3--------1--0--|-----------3--------|
-------2----0----|-----------------|--4--------------|--2-----2-----2-----|
-----------------|--3--------2-----|-----------------|-----2-----------2--|
-----------------|-----------------|-----------------|--0-----------------|
-----------------|-----------------|--3--------------|--------------------|


  E  E  E  E  Q    E  E     E  E  E  E  E  E     E  E   E   E  E  E   
--0----------------------|--------------------|--0-------------0--3--|
-----3----------------0--|--1-----------1--3--|-----1-------1--------|
--------2----------2-----|-----2-----2--------|---------0------------|
-----------2-------------|--------2-----------|--------(2)-----------|
--------------0----------|--0-----------------|--3-------------------|
-------------------------|--------------------|----------------------|


  E  E   E   S S E  E     E  E  E  E  E  E      E   E  E  E  E  E   
-------------0---------|--------------------|----------------------|
--3------------3-1--0--|-----------------0--|---1------------1--3--|
-----0-----------------|--2-----------2-----|--(4)--2-----2--------|
---------0-------------|-----3-----3--------|----------2-----------|
--------(2)------------|--------3-----------|---0------------------|
--3--------------------|--1-----------------|----------------------|


   E   E   E   E  E  E     E  E  E  E  E.  S    E  E  E   E   E.  S  
---0--------------0--3--|--5-----------3---7-|--5-------------5---7-|
--(3)--1-------1--------|-----1-----1--------|--------3-------------|
-----------0------------|--------2-----------|-----2-----(2)--------|
----------(2)-----------|--------------------|--0-------------------|
---3--------------------|--------------------|----------------------|
------------------------|--1-----------------|----------------------|


                                                       ^                        
  E  E  E  E  E  E     E  E  E   E   E  E     H        E  E     H        E  E   
--8-----7-----5-----|--3-----1-------0-----|--------------0--|-----------------|
--5-----5-----5-----|--1-----1-------1-----|--3--------1-----|--3--------1--0--|
-----5-----5-----5--|-----0------0------0--|--2--------2-----|--0--------------|
--------------------|-----------(2)--------|--3--------3-----|--0--------------|
--0-----------------|--3-------------------|-----------------|--2--------------|
--------------------|----------------------|--1--------------|--3--------------|


                                                 ^                  
  E  E  E  E  E  E     E  E  E  E  Q    E  E     E  E  E  E  E  E   
--------------------|--0----------------------|--------------------|
-----------3--------|-----3----------------0--|--1-----------1--3--|
--2-----2-----2-----|--------2----------2-----|--2--2-----2--------|
-----2-----------2--|-----------2-------------|--2-----2-----------|
--0-----------------|--------------0----------|--0-----------------|
--------------------|-------------------------|--------------------|


  ^                        ^                       ^                    
  E  E   E   E  E   E      E  E   E   S S E  E     E  E  E   E   E  E   
--0-------------0---3---|-------------0---------|----------------------|
--1--1-------1-----(0)--|--3------------3-1--0--|-------------------0--|
--0------0--------------|--0--0-----------------|--2-------------2-----|
--2-----(2)-------------|--0------0-------------|--4--4-----(4)--------|
--3---------------------|--2-----(2)------------|--5-----5-------------|
------------------------|--3--------------------|--5-------------------|


  ^                    ^                        >                  
  E  E  E  E  E  E     E  E   E   E  E   E      E  E  E  E  E.  S  
--------------------|--0-------------0---3---|--5-----------3---7-|
--1-----------1--3--|--1--1-------1-----(0)--|-----1-----1--------|
--2--2-----2--------|--0------0--------------|--------2-----------|
--2-----2-----------|--2-----(2)-------------|--------------------|
--0-----------------|--3---------------------|--------------------|
--------------------|------------------------|--1-----------------|


  ^                                                  
                         |--3--|  |--3--|  |--3--|   
  E  E  E   E   E.  S    E  E  E  E  E  E  E  E  E   
--5-------------5---7-|--8--------7--------5--------|
--3-----3-------------|-----5--------5--------5-----|
--2--2-----(2)--------|--------5--------5--------5--|
--0-------------------|-----------------------------|
----------------------|--0--------------------------|
----------------------|-----------------------------|


                                  ^        ^        ^               
  |--3--|  |---3--|   |--3--|                                       
  E  E  E  E  E   E   E  E  E     H        E  E     H        E  E   
--3--------1----------0--------|--------------0--|-----------------|
-----1--------1----------1-----|--3--------1-----|--3--------1--0--|
--------0---------0---------0--|--2--------2-----|--0--------------|
-----------------(2)-----------|--3--------3-----|--0--------------|
--3----------------------------|-----------------|--2--------------|
-------------------------------|--1--------------|--3--------------|


  E  E  E  E  E  E     E  E  E  E  E  E     E  E  E  E  E  E   
--------------------|--0--------3--------|--5--------7--------|
-----------3--------|-----3--------0-----|-----8--------8-----|
--2-----2-----2-----|--------2--------2--|--------7--------9--|
-----2-----------2--|--------------------|--------------------|
--0-----------------|--------------------|--------------------|
--------------------|--------------------|--------------------|


                                                                          ^     
   E   E   H           H        E  E     E  E  E  E  E  E     E  E  E  E  Q     
--10----------------|-----------------|--------------------|--0----------------|
------10------------|-----------1--0--|-----------3--------|-----3--------2----|
----------11--------|--L--------------|--2-----2-----2-----|--------2-----2----|
--------------------|-----------------|-----2-----------2--|-----------2--2----|
--------------------|-----------------|--0-----------------|--------------0----|
--------------------|-----------------|--------------------|-------------------|


  H.             
---------------||
--L------------||
--L------------||
--L------------||
--L------------||
---------------||




Duration Legend
---------------
W - whole
H - half
Q - quarter
E - 8th
S - 16th
T - 32nd
X - 64th
. - note dotted
|-n-|  - n-tuplets


Tablature Legend
----------------
L - tied note
x - dead note
g - grace note
(n) - ghost note
> - accentuded note
NH - natural harmonic
AH - artificial harmonic
TH - tapped harmonic
SH - semi harmonic
PH - pitch harmonic
h - hammer on
p - pull off
b - bend
br - bendRelease
pb - preBend
pbr - preBendRelease
brb - bendReleaseBend
\n/ - tremolo bar dip
\n - tremolo bar dive
-/n - tremolo bar Release up
/n\ - tremolo bar inverted dip
/n - tremolo bar return
-\n - tremolo bar Release down
S - shift slide
s - legato slide
/ -  slide into from below or out of upwards
\ -  slide into from above or out of downwards
~ - vibrato
W - wide vibrato
tr - trill
TP - tremolo picking
T - tapping
S - slap
P - pop
< - fade in
^ - brush up
v - brush down

        
Comments

@OggirtMoonfrad (May 20, 2011 at 4:56 PM)


@surreal (May 20, 2011 at 9:23 PM)

nice recording indeed. You can submit those into the recording section on the site. I'd suggest it.