Gametabs
Home
Tabs
Random

Main Theme

Average rating: 5.000

3 ratings

Composer:

Tabber:

Style:

Instrument:

Created: October 06, 2008 at 12:00 AM

            The Elder Scrolls III: Morrowind  (PC)

Original Composer: Jeremy Soule

Tabbed by: Charlie Shortman (cwjs0)

19:57 06/10/2008

Classical style. 

The tab doesn't show the ryhthm so listen to the tune.



e |---------------------------6--------------------|
B |-1-3-4---4---4-6-8---8---8---6--8p6-4-3-4-3--1--|
G |-0-----0-----------0-------------------------0--|
D |---------------0-----------------------------1--|
A |-----3---3---3---6---6---6---8------6-5-6-5--3--|
D |---------------0----------------------0---------|

e |--------------------------6-8--8-6-10-8--|
B |-1-3-4---4---4-6-8---8--8----------------|
G |-0-----0-----------0----------------0----|
D |---------------0-------------------------|
A |-----3---3---3---6---6--6---8--8-6----8--|
D |---------------0-------------------------|

e |-8-10-11-10-8-6-4-3----------|
B |--------------------6-4-3-1--|
G |----0-----0---------------0--|
D |------10------0-3-1-------1--|
A |-8----------8-------8-6-5-3--|
D |------10------0--------------|

        
Comments

@auriplane (October 07, 2008 at 3:31 AM)

Beautiful


@amz181 (October 07, 2008 at 4:50 PM)

very very nice, the 6/0/0 pluck sounds a bit off though..?


@jakey (October 07, 2008 at 5:55 PM)

well then, he CLEARLY did, didnt he?


@amz181 (October 07, 2008 at 8:48 PM)

oops

write it so that people like me dont miss it :p "drop d" < :)