Gametabs
Home
Tabs
Random

Main Theme

Average rating: No ratings

Composer:

Tabber:

Style:

Instrument:

Created: November 08, 2009 at 12:00 AM

            Call of Magic
Elder Scrolls 3: Morrowind
Composed by: Jeremy Soule
Tabbed By: Markus

e|  -----------------------0-----0--0--3--------0--------------
B|  -----0--1-----1--1--3--------1--------3--------3--1--0-----
G|  --2-----------2-----------0-----------------------------2--
D|  -----------2-----------------------------0-----------------
A|  --------0--------------3--------------------------------0--
E|  --------------------------------------3--------------------

e|  -----------------------0-----0--0--3--5--5--3--7--5--------
B|  -----0--1-----1--1--3--------1-----------------------------
G|  --2-----------2-----------0--------------------------------
D|  -----------2--------------------------3-----------3--------
A|  --------0--------------3-----------------------------------
E|  -----------------------------------------------------------

e|  --5--7--8--7--5--3--1--0--------0--------------
B|  --------------------------3--1-----3--1--0-----
G|  --------------------------------------------2--
D|  ----------------------------------------------- repeat from beginning
A|  --------0--------3--------------------------0--
E|  --------------------------1--------3-----------

        
Comments

No comments yet