Gametabs
Home
Tabs
Random

Main Theme

Average rating: No ratings

Composer:

Tabber:

Style:

Instrument:

Created: October 06, 2014 at 12:00 AM

            

                                        
                            Game| The Elder Scrolls III Morrowind
                              Song| Main Theme
                                Console| Pc Xbox
                                  Composer|Jeremy Soule

                                      Tuning Standard EADGBe 

                  Transcribed by SolidusArmor











                 Section 1

e|---------------------------------------------------------|
B|-----------4---6---8------8---11--------8--6--4----------|
G|-5--7--8--------------------------10------------7--5-----|
D|---------------------------------------------------------|
A|---------------------------------------------------------|
E|---------------------------------------------------------|









                 Section 2

e|-----------------------------------8-------10--8----------|
B|------------4---6---8------8---11------11-----------------|
G|-5--7--8--------------------------------------------------|
D|----------------------------------------------------------|
A|----------------------------------------------------------|
E|----------------------------------------------------------|









               Section 3

e|-8--10--11--10--8----------------------------------------|
B|-------------------11--9--8---------8--------------------|
G|------------------------------10--8----10--8--7----------|
D|-------------------------------------------------10------|
A|---------------------------------------------------------|
E|---------------------------------------------------------|









        
Comments

No comments yet