Gametabs
Home
Tabs
Random

Shop Theme

Average rating: 5.000

1 ratings

Composer:

Tabber:

Style:

Instrument:

Created: June 27, 2018 at 12:00 AM

            The Elder Scrolls II: Daggerfall - Shop Theme
Arranged by Laoise Earle
(Capo 3)

      ^                     ^                       ^                     ^                  
      E  S S E  E  E  E     E  S  S  E  E  E  E     E  S S E  E  E  E     E  E  E  E  E  E   
E||---0--0---0--0--------|--2--2p-0h-2--2--4--5--|--0--0---0--0--------|--------0-----------|
B||--------3-------3-----|--3-----------3--------|-------3-------3-----|--2--3-----0--------|
G||*--2---------2-----2--|--2-----------2--------|--2---------2-----2--|--2-----------------|
D||*--2---------2-----2--|--0-----------0-----0--|--2---------2-----2--|--2--------------2--|
A||---0---------0--------|-----------------------|--0---------0--------|--0-----------2-----|
E||----------------------|-----------------------|---------------------|-----------0--------|


  ^                     ^                       ^                                     
  E  S S E  E  E  E     E  S  S  E  E  E  E     E  E  E  E  E  E     E  E  E  Q.      
--0--0---0--0--------|--2--2p-0h-2--2--4--5--|--0--------------0--|------------------|
-------3-------3-----|--3-----------3--------|-----3--2--2--3-----|--0---------------|
--2---------2-----2--|--2-----------2--------|--2--------2--------|-----2--1--2------|
--2---------2-----2--|--0-----------0-----0--|--2--------2--------|--2--------2------|
--0---------0--------|-----------------------|--0--------0-----0--|--0--------0------|
---------------------|-----------------------|--------------------|------------------|


  ^                                         ^      ^                          
  E  S S E  E  E  E     E  E  E  E  Q       Q.     Q.        E.  S E  Q.      
---------------------|-------------------|----------------|------------------|
--0--0---0--0--------|--3--2-----0-------|--3------2------|--2---0-----------|
-------2-------2-----|--------2----------|--2-------------|--------2---------|
--2---------------2--|--------0-----2----|--0-------------|-----------4------|
---------------------|--2----------------|---------0------|--0--------2------|
--0---------0--------|-----------0-------|----------------|------------------|


  ^                                          ^                   ^                 
  E  S S S S E  E  E     E  E  E  E  Q       E.  S S S Q.        E.  S S S Q.      
----------------------|-------------------|-------------------|-------------------|
--0--0---0---0-----0--|--3--2-----0-------|--3---2-0---0------|--3---2-0---0------|
-------2---2----2-----|--------2----------|--2-------2--------|--2-------2--------|
--2----------2--------|--------0-----2----|--0----------------|--0----------------|
----------------------|--2----------------|-------------------|------------0------|
--0-------------------|-----------0-------|------------2------|-------------------|


  ^                                    
  E.  S E  E  E  E     H.              
--------------------|----------------||
--3---2-0-----------|----------------||
--2--------2-----2--|---------------*||
--0-----------4-----|--3------------*||
--------------------|--4-------------||
-----------2--------|----------------||




Duration Legend
---------------
W - whole
H - half
Q - quarter
E - 8th
S - 16th
T - 32nd
X - 64th
. - note dotted
|-n-|  - n-tuplets


Tablature Legend
----------------
L - tied note
x - dead note
g - grace note
(n) - ghost note
> - accentuded note
NH - natural harmonic
AH - artificial harmonic
TH - tapped harmonic
SH - semi harmonic
PH - pitch harmonic
h - hammer on
p - pull off
b - bend
br - bendRelease
pb - preBend
pbr - preBendRelease
brb - bendReleaseBend
\n/ - tremolo bar dip
\n - tremolo bar dive
-/n - tremolo bar Release up
/n\ - tremolo bar inverted dip
/n - tremolo bar return
-\n - tremolo bar Release down
S - shift slide
s - legato slide
/ -  slide into from below or out of upwards
\ -  slide into from above or out of downwards
~ - vibrato
W - wide vibrato
tr - trill
TP - tremolo picking
T - tapping
S - slap
P - pop
< - fade in
^ - brush up
v - brush down

        
Comments

No comments yet