Gametabs
Home
Tabs
Random

Kaze ni Naru

Average rating: 5.000

1 ratings

Composer:

Tabber:

Style:

Created: March 08, 2015 at 12:00 AM

            Song: Kaze ni Naru ( Become The Wind ) 
Composer: Tsuji Ayano
Arranged by Matheus Massinelli
Link to the video demonstration:
http://youtu.be/dweyiBnICkc

If you like, subscribe for more free videogame tabs =)


Prestíssimo
     Q    Q    Q    Q       Q    Q    Q    Q       H        Q    Q     
E||----------------------|-------0---------5----|--3--------0---------|
B||------------1----1----|--3-------------------|----------------3----|
G||--0----2--------------|------------0---------|---------------------|
D||----------------------|----------------------|---------------------|
A||----------------------|-------3--------------|---------------------|
E||----------------------|----------------------|---------------------|


  Q    Q    Q    Q       Q    Q    Q    Q       Q    H        Q     
----------------------|----------------------|-------1-------------|
--3----1--------------|--1----3----1----0----|--1------------------|
-----------------2----|----------------------|----------------2----|
------------2---------|----------------------|-------0-------------|
-------0--------------|----------------------|---------------------|
----------------------|----------------------|---------------------|


  H        Q    Q       Q    Q    Q    Q       Q    Q    Q    Q     
----------------0----|--0-------------------|-------0--------------|
--1--------1---------|-------3--------------|--3---------3----2----|
---------------------|-----------------0----|----------------------|
---------------------|------------0---------|----------------------|
---------------------|----------------------|----------------------|
---------------------|-------3--------------|----------------------|


  Q    H        Q       H        Q    Q       Q    Q    Q    Q     
-------3-------------|-----------0---------|----------------------|
--3-------------0----|--3-------------3----|--3----1--------------|
---------------------|---------------------|-----------------2----|
-------2-------------|---------------------|------------2---------|
---------------------|---------------------|-------0--------------|
---------------------|---------------------|----------------------|


  Q    Q    Q    Q       Q    H        Q       H        Q    Q     
----------------------|-------1-------------|---------------------|
--1----3----1----0----|--1------------------|--1------------------|
----------------------|----------------2----|-----------0----2----|
----------------------|-------0-------------|---------------------|
----------------------|---------------------|---------------------|
----------------------|---------------------|---------------------|


  Q    Q    Q    Q       Q    Q    Q    Q       Q    Q    Q    Q     
----------------------|----------------------|-------0---------5----|
----------------------|------------1----1----|--3-------------------|
--2----0---------0----|--0----2--------------|------------0---------|
------------0---------|----------------------|----------------------|
----------------------|----------------------|-------3--------------|
-------3--------------|----------------------|----------------------|


  H        Q    Q       Q    Q    Q    Q       Q    Q    Q    Q     
--3--------0---------|----------------------|----------------------|
----------------3----|--3----1--------------|--1----3----1----0----|
---------------------|-----------------2----|----------------------|
---------------------|------------2---------|----------------------|
---------------------|-------0--------------|----------------------|
---------------------|----------------------|----------------------|


  Q    H        Q       H        Q    Q       Q    Q    Q    Q     
-------1-------------|----------------0----|--0-------------------|
--1------------------|--1--------1---------|-------3--------------|
----------------2----|---------------------|-----------------0----|
-------0-------------|---------------------|------------0---------|
---------------------|---------------------|----------------------|
---------------------|---------------------|-------3--------------|


  Q    Q    Q    Q       Q    H        Q       H        Q    Q     
-------0--------------|-------3-------------|-----------0---------|
--3---------3----2----|--3-------------0----|--3-------------3----|
----------------------|---------------------|---------------------|
----------------------|-------2-------------|---------------------|
----------------------|---------------------|---------------------|
----------------------|---------------------|---------------------|


  Q    Q    Q    Q       Q    Q    Q    Q       Q    H        Q     
----------------------|----------------------|-------1-------------|
--3----1--------------|--1----3----1----0----|--1------------------|
-----------------2----|----------------------|----------------2----|
------------2---------|----------------------|-------0-------------|
-------0--------------|----------------------|---------------------|
----------------------|----------------------|---------------------|


  H        Q    Q       Q    Q    Q    Q       Q    Q    Q    Q     
---------------------|----------------------|--0----1----0---------|
--1--------1----3----|--3----1--------------|-----------------3----|
---------------------|-----------------0----|----------------------|
---------------------|------------2---------|----------------------|
---------------------|-------3--------------|----------------------|
---------------------|----------------------|----------------------|


  Q    H        Q       H        Q    Q       Q    Q    Q    Q     
--0----1--------0----|-----------0----0----|--0----1--------------|
---------------------|--3------------------|-----------------1----|
---------------------|---------------------|------------1---------|
-------3-------------|---------------------|-------3--------------|
---------------------|---------------------|----------------------|
---------------------|---------------------|----------------------|


  Q    Q    Q    Q       Q    Q    Q    Q       H        Q    Q     
--1----3----1----3----|--1----0--------------|---------------------|
----------------------|-----------------3----|--1--------3----3----|
----------------------|------------0---------|---------------------|
----------------------|-------2--------------|---------------------|
----------------------|----------------------|---------------------|
----------------------|----------------------|---------------------|


  Q    Q    Q    Q       Q    Q    Q    Q       Q    H        Q     
-------0--------------|--0----0--------------|--0----0-------------|
--3--------------1----|------------3----1----|----------------3----|
----------------------|----------------------|---------------------|
------------2---------|----------------------|-------0-------------|
-------0--------------|----------------------|---------------------|
----------------------|----------------------|---------------------|


  Q    Q    Q    Q       Q    Q    Q    Q       Q    Q    Q    Q     
----------------------|-----------------0----|--2---------5---------|
--3----2----3---------|-------3----3---------|-------3--------------|
----------------------|--2-------------------|----------------------|
------------0----4----|----------------------|-----------------0----|
----------------------|----------------------|----------------------|
----------------------|----------------------|------------3---------|


  Q    Q    Q    Q       Q    H.              Q    Q    Q    Q     
--3----3---------2----|-------3------------|--0----1----0----1----|
----------------------|--------------------|----------------------|
------------0---------|--0-----------------|----------------------|
----------------------|-------0------------|----------------------|
----------------------|--------------------|----------------------|
----------------------|--------------------|----------------------|


  Q    Q    Q    Q       Q    Q    Q    Q       Q    Q    Q    Q     
--1----3--------------|--0----1----0----1----|--1----3--------------|
-----------------1----|----------------------|-----------------0----|
------------0---------|----------------------|------------0---------|
----------------------|----------------------|----------------------|
-------3--------------|----------------------|-------2--------------|
----------------------|----------------------|----------------------|


  Q    Q    Q    Q       Q    H        Q       H        Q    Q     
--3----5----3----5----|--7----8--------0----|--0--------3----5----|
----------------------|---------------------|---------------------|
----------------------|---------------------|---------------------|
----------------------|---------------------|---------------------|
----------------------|-------0-------------|---------------------|
----------------------|---------------------|---------------------|


  Q    H        Q       H        Q    Q       Q    H        Q     
--5----3-------------|---------------------|-------1--------0----|
---------------------|--0--------1----3----|--1------------------|
----------------0----|---------------------|---------------------|
---------------------|---------------------|-------3-------------|
---------------------|---------------------|---------------------|
-------0-------------|---------------------|---------------------|


  H        H           Q    H        Q       H        H         
--------------------|-------1--------0----|--------------------|
--3--------1--------|--1------------------|--3--------1--------|
--------------------|---------------------|--------------------|
--------------------|---------------------|--------------------|
--------------------|-------3-------------|--------------------|
--------------------|---------------------|--------------------|


  Q    H        Q       H        Q    Q       Q    Q    Q    Q     
---------------------|-----------0----0----|--0----3--------------|
--1----3-------------|--1------------------|-----------------0----|
----------------2----|---------------------|----------------------|
-------3-------------|---------------------|------------0---------|
---------------------|---------------------|----------------------|
---------------------|---------------------|-------3--------------|


  Q    Q    Q    Q       Q    Q    Q    Q       Q    Q    Q    Q     
--0----1----0----1----|--1----3--------------|--0----1----0----1----|
----------------------|-----------------1----|----------------------|
----------------------|------------0---------|----------------------|
----------------------|----------------------|----------------------|
----------------------|-------3--------------|----------------------|
----------------------|----------------------|----------------------|


  Q    Q    Q    Q       Q    Q    Q    Q       Q    H        Q     
--1----3--------------|--3----5----3----5----|--7----8--------0----|
-----------------0----|----------------------|---------------------|
------------0---------|----------------------|---------------------|
----------------------|----------------------|---------------------|
-------2--------------|----------------------|-------0-------------|
----------------------|----------------------|---------------------|


  H        Q    Q       Q    H        Q       H        Q    Q     
--0--------3----5----|--5----3-------------|---------------------|
---------------------|---------------------|--0--------1----3----|
---------------------|----------------0----|---------------------|
---------------------|---------------------|---------------------|
---------------------|---------------------|---------------------|
---------------------|-------0-------------|---------------------|


  Q    H        Q       H        H           Q    H        Q     
-------1--------0----|--------------------|-------1--------0----|
--1------------------|--3--------1--------|--1------------------|
---------------------|--------------------|---------------------|
-------3-------------|--------------------|---------------------|
---------------------|--------------------|-------3-------------|
---------------------|--------------------|---------------------|


  H        H           Q    H        Q       H        Q    Q     
--------------------|---------------------|---------------------|
--3--------1--------|--1----3-------------|--1--------1----3----|
--------------------|----------------2----|---------------------|
--------------------|-------3-------------|---------------------|
--------------------|---------------------|---------------------|
--------------------|---------------------|---------------------|


  Q    H.             
--------------------||
--3----1------------||
--------------------||
--------------------||
-------3------------||
--------------------||


If you want to play this w/ the music, After the second repetition
you can iniciate a sequence of chords, to cotinue the song, the
chords is: F / G / Em / Am 2x + D / G for the first break and
F / C / F / C / F / Fm / C for the final part.



Duration Legend
---------------
W - whole
H - half
Q - quarter
E - 8th
S - 16th
T - 32nd
X - 64th
. - note dotted
|-n-|  - n-tuplets


Tablature Legend
----------------
L - tied note
x - dead note
g - grace note
(n) - ghost note
> - accentuded note
NH - natural harmonic
AH - artificial harmonic
TH - tapped harmonic
SH - semi harmonic
PH - pitch harmonic
h - hammer on
p - pull off
b - bend
br - bendRelease
pb - preBend
pbr - preBendRelease
brb - bendReleaseBend
\n/ - tremolo bar dip
\n - tremolo bar dive
-/n - tremolo bar Release up
/n\ - tremolo bar inverted dip
/n - tremolo bar return
-\n - tremolo bar Release down
S - shift slide
s - legato slide
/ -  slide into from below or out of upwards
\ -  slide into from above or out of downwards
~ - vibrato
W - wide vibrato
tr - trill
TP - tremolo picking
T - tapping
S - slap
P - pop
< - fade in
^ - brush up
v - brush down
        
Comments

@Basisti94 (March 11, 2015 at 12:30 PM)

I really like this one. It's nice and simple.