Gametabs
Home
Tabs
Random

Serenity

Average rating: 4.400

5 ratings

Composer:

Tabber:

Style:

Instrument:

Created: October 20, 2013 at 12:00 AM

            The Binding of Isaac
Serenity

  tabbed by Max Weber
Standart tuning no capo

 |       |       |        |       |       | 
|------------------------|----------------1-------|
|1---------------3-------|4-----------------------|
|--------0---------------|--------0---------------|
|--------1-------1-------|--------0-------0-------|
|3-----------------------|2-----------------------|
|------------------------|------------------------|

 |       |       |        |       |       |        
|----------------8-----8-|7-------8-------10------|
|8-----------------------|------------------------|
|------------------------|--------0-------0-------|
|--------0-------0-------|--------0-------0-------|
|--------8-------8-------|------------------------|
|6-----------------------|7-----------------------|

 |       |       |        |       |       |        
|11--------------8-------|7---------------8-------|
|------------8-----------|------------------------|
|--------8-----------8---|--------7---------------|
|------------------------|--------0-------0-------|
|--------6-------6-------|------------------------|
|8-----------------------|7-----------------------|

 |       |       |        |       |       |        
|3-----------------------|4---------------3-------|
|--------3-------6-------|------------------------|
|------------------------|--------0-------0-------|
|------------------------|--------0-------0-------|
|1-------5-------5-------|2-----------------------|
|------------------------|------------------------|

 |       |       |        |       |       |        
|--------1---------------|------------------------|
|4---------------4-------|3---------------1-------|
|------------------------|--------0-------0---0---|
|--------1---------------|--------0-------0-------|
|3---------------6-------|2-----------------------|
|------------------------|------------------------|

 |       |       |        |       |       |        
|------------------------|------------------------|
|------------------------|------------------------|
|3---------------5-------|4-----------------------|
|--------3-------0-------|--------5-------7-------|
|1-------5---------------|2-------5-------5-------|
|------------------------|------------------------|

 |       |       |        |       |       |        
|------------------------|------------------------|
|------------------------|------------------------|
|3---------------5-------|1---------------3-------|
|--------3---------------|--------1---------------|
|--------5-------5-------|--------3-------3-------|
|6-----------------------|4-----------------------|



 |       |       |        |       |       |       |        
|------------------------|--------------------------------|
|------------------------|--------0-------3---------------|
|----------------1-------|0-------------------------------|
|3-------1---------------|--------------------------------|
|------------------------|--------2-----------------------|
|1-------4-------4-------|3---------------3---------------|
 
 |       |       |        |       |       |        
|------------------------|------------------------|
|------------------------|4---------------6-------|
|5-------0-------7-------|--------0-------0-------|
|------------------------|--------0-------0-------|
|--------6-------6-------|------------------------|
|8-----------------------|7-----------------------|

 |       |       |        |       |       |        
|----------------8-------|7-------8-------10------|
|8-----------------------|------------------------|
|------------------------|----7-------7-------7---|
|--------0---------------|--------0-------0-------|
|--------8-------8-------|------------------------|
|6-----------------------|7-----------------------|

 |       |       |        |       |       |        
|11--------------8-------|7---------------8-------|
|------------8-----------|------------------------|
|--------8-----------8---|--------7---------------|
|------------------------|--------0-------0-------|
|--------6-------6-------|------------------------|
|8-----------------------|7-----------------------|

 |       |       |        |       |       |        
|3---------------1-------|4---------------3-------|
|--------3---------------|------------------------|
|------------------------|--------0---------------|
|------------------------|--------0-------0-------|
|1-------5-------5-------|------------------------|
|------------------------|3-----------------------|

 |       |       |        |       |       |        
|--------1---------------|------------------------|
|4---------------4-------|3---------------1-------|
|----0---0---0-------0---|--------0-----------0---|
|--------1-------1-------|--------0-------0-------|
|3-----------------------|2-----------------------|
|------------------------|------------------------|

 |       |       |        |       |       |        
|------------------------|------------------------|
|----------------1-------|0-----------------------|
|3-----------------------|--------0-------2-------|
|--------0---3-----------|--------0---------------|
|----------------1-------|----------------2-------|
|6-----------------------|3-----------------------|

 |       |       |        |       |       |        
|------------------------|------------------------|
|----------------1-------|------------------------|
|3-----------------------|------------------------|
|3-----------------------|6---------------8-------|
|1-------1-------1-------|------------6-----------|
|------------1-----------|4-------4-------4-------|



 |       |       |        |       |       |       |        
|------------------------|--------------------------------|
|------------------------|--------0-------3-------1-------|
|----------------1-------|0-------------------------------|
|3-----------------------|----0-------0-------------------|
|------------3-----------|------------------------3-------|
|4-------1-------4-------|3-------3-------3-----------3---|

 |       |       |        |       |       |        
|------------------------|--------1-------3-------|
|--------3-------4-------|------------------------|
|------------------------|------------------------|
|--------0---------------|--------0---------------|
|3---------------2-------|2---------------1-------|
|----3-------3-------3---|----3-------3-------1---|

 |       |       |        |       |       |        
|------------------------|------------------------|
|--------1-------0-------|1-------3-------4-------|
|------------------------|------------------------|
|--------0-----------0---|----0-------0-----------|
|1-----------------------|--------2-------3-------|
|----1-------1---3-------|3-------------------3---|

 |       |       |        |       |       |        
|------------------------|------------------------|
|--------1-------0-------|--------1---------------|
|----0-------------------|----------------0-------|
|1-------1---1-----------|0-------0---------------|
|3---------------2-------|2---------------1-------|
|----3-------3-------3---|----3-------3-------1---|
                                                 ^
 |       |       |        |       |       |        
|------------------------|--------3---------------|
|------------------------|----------------4-------|
|----------------1-------|--------4-----------0---|
|0-------3-----------0---|------------------------|
|1-------1---------------|--------5-------3-------|
|----1-------1---3-------|3-------------------3---|

 |       |       |        |       |       |        
|1-----------------------|------------------------|
|--------4-------0-------|--------1---------------|
|----0-------0-----------|------------0---3-------|
|------------------------|--------0---------------|
|3-------6-------2-------|2---------------1-------|
|----3-------3-------3---|----3-------3-------1---|

 |       |       |        |       |       |        
|------------------------|------------------------|
|--------1-------0-------|------------------------|
|------------------------|0-------2-------3-------|
|0---3---0-----------0---|----0-------0-----------|
|1-----------------------|--------2-------1-------|
|----1-------1---3-------|3-----------------------|

 |       |       |        |       |       |        
|------------------------|------------------------|
|--------1---------------|------------------------|
|----------------1-------|--------3---------------|
|------------------------|----1-----------3-------|
|1-------1---------------|------------------------|
|----1-----------4-------|4-------4-------4-------|



 |       |       |        |       |       |       |        
|------------------------|--------------------------------|
|------------------------|--------------------------------|
|--------1-------0-------|--------------------------------|
|------------------------|0-------0-------------------0---|
|----3-------------------|--------2-------3-----------2---|
|1-------4-------3-------|----3-----------3---------------|

 |       |       |        |       |       |        
|------------------------|------------------------|
|------------------------|------------------------|
|------------------------|--------------------1---|
|--------1-----------3---|--------4-----------1---|
|--------3-----------3---|--------6---------------|
|--------------------5---|--------4-------4---4---|

 |       |       |        |       |       |        
|------------------------|--3---------------------|
|----------------------0-|3---3-0---------4-------|
|--------0---------------|------------------------|
|----------------0---0---|------------------------|
|--------2---------2-----|--------3-------3-------|
|4-------3---------------|3-------------------3---|

 |       |       |        |       |       |        
|------------------------|------------------------|
|1-------0---------------|1-----------------------|
|------------------------|--------0---------------|
|1-----------------------|0-----------------------|
|--------2-------2-------|--------1-------1-------|
|----3---------------3---|----3---------------1---|

 |       |       |        |       |       |        
|------------------------|------------------------|
|------------------------|------------------------|
|--------1---------------|0-----------------------|
|3-------------------0---|----0---1-------3-------|
|5-----------------------|2-------3-------3-------|
|----1---3-------3-------|--------------------3---|

 |       |       |        |       |       |        
|11------10--------------|8-------6---------------|
|------------------------|------------------------|
|----------------0-------|------------------------|
|------------------------|0---------------3-------|
|6---------------2-------|------------------------|
|----3---7-----------3---|----3---6-------6---1---|

 |       |       |        |       |       |        
|8-------7---------------|------------------------|
|------------------------|------------------------|
|----------------0-------|2-------3---------------|
|0-------------------0---|----0-------------------|
|------------------------|2-------1-------1-------|
|----1---3-------3-------|--------------------1---|

 |       |       |        |       |       |        
|------------------------|------------------------|
|1-----------------------|------------------------|
|--------1---------------|3-----------------------|
|--------------------1---|--------3---------------|
|1-----------------------|--------------------3---|
|--------4-------4-------|4-------4-------1-------|



 |       |       |        |       |       |       |        
|------------------------|--3-----------15----------13--11|
|----------------------0-|3-------------------------------|
|1-------0---------------|--------------------------------|
|----------------0---0---|--0-----------------------------|
|--------2---------2-----|--------------------------------|
|4-------3---------------|--------------------------------|

 |       |       |        |       |       |        
|--10--10------(20)------|--8-1011------(19)------|
|------8-----------------|------12----------------|
|------------------------|------12----------------|
|------------------------|------------------------|
|------------------------|------------------------|
|------------------------|------------------------|
 
 |       |       |        |       |       |        
|--111315------(18)----8-|------7---10-(19)-----10|
|------12----------------|------8-----------------|
|------12----------------|------7-----------------|
|------------------------|------------------------|
|------------------------|------------------------|
|------------------------|------7-----------------|

 |       |       |        |       |       |        
|------11------(20)----8-|------4-------(16)----6-|
|------8-----------------|------4-----------------|
|------8-----------------|------5-----------------|
|------------------------|------6-----------------|
|------------------------|------6-----------------|
|------8-----------------|------4-----------------|

 |       |       |        |       |       |        
|------1-------(16)----4-|------3------(19)-----10|
|------1-----------------|------3-------0---------|
|------1-----------------|------4-----------0-----|
|------3-----------------|------5---------------0-|
|------3-----------------|------5-----------------|
|------1-----------------|------3-----------------|

 |       |       |        |       |       |        
|------------------------|------------------------|
|--------1-------------1-|--3-----4---------------|
|----------------------0-|--0---------------------|
|------1---------------1-|--1---3---------------3-|
|------3-------3-------2-|------1-------1---------|
|--3-------3-------------|--3-------1-----------1-|

 |       |       |        |       |       |        
|1-------3-----1---------|------------------------|
|----------------------1-|------3-------4-------3-|
|------1-----------------|------------------------|
|------------------------|----------0-------0-----|
|----------3-------3---0-|--3-------------------2-|
|------1-------1---------|------3-------3---------|

 |       |       |        |       |       |        
|------------------------|------------------------|
|--------1-----4-------1-|------0---------------1-|
|--------------0-------0-|------0---------------0-|
|------1-------1-------1-|----------------------0-|
|------3-------3---------|------2-------2---------|
|----------3-------3-----|--3-------3-------3-----|




 |       |       |        |       |       |       |        
|------------------------|--------------------------------|
|------------------------|--------------------------------|
|------0-----------------|--------------------------------|
|----------1-----------3-|------1---0-----------0---------|
|------3---------------3-|------2---------------2-------3-|
|------4-------4-------4-|------3-------3---------------3-|

 |       |       |        |       |       |        
|------------------------|------------------------|
|------------------------|------------------------|
|------------------------|------------------------|
|------1---------------0-|------0-----------------|
|------3---3---3-------2-|--------------3-------1-|
|------3-------3-------3-|--------------3---3---1-|

 |       |       |        |       |       |        
|------------------------|------------------------|
|------------------------|------------------------|
|------------------------|------------------------|
|------------------------|------------------------|
|--------------3-------0-|------3-----------------|
|------1-------1-------1-|------1-------3-------4-|
 
 |       |       |        |       |       |        
|------------------------|------------------------|
|------------------------|------------------------|
|------------------------|------------------------|
|------1-----------0---1-|------------------------|
|----------3-------1---3-|--------------3-------0-|
|--------------4---------|------3-------3-------8-|

 |       |       |        |       |       |        
|------------------------|--------------3-------8-|
|----------------------0-|------3-------0---------|
|--------------2---------|------0-----------------|
|------3---------------0-|------0-------0-------5-|
|------3-------3---------|------------------------|
|----------1-----------3-|----------3-----------8-|

 |       |       |        |       |       |        
|------3-----------------|------1-------8---------|
|--------------1-------1-|--4---------------------|
|------------------0-----|------------------------|
|--------------1---------|------------------------|
|--------------3-------3-|------3-----------------|
|------------------3-----|--3-----------8---------|


        
Comments

@gaebdawwg (August 20, 2021 at 1:06 AM)

top notch stuff