Gametabs
Home
Tabs
Random

Sacrificial

Average rating: 5.000

3 ratings

Composer:

Tabber:

Style:

Instrument:

Created: August 23, 2016 at 12:00 AM

            Sacrificial (Basement theme)
The Binding of Isaac 
Composed by Danny Baranowsky 
Loosely based off of this tab from ultimate guitar: 
http://plus.ultimate-guitar.com/m/misc_soundtrack/the_binding_of_isaac_-... 
Arranged by Furious_Fries


Drop-D Tuning

    E E. S   E E S S   S S Q    E E. S
||---------|---------|--------|--------|
||o-0-1----|---0-----|--------|--------|
||-------1-|-2---0-2-|-0------|---0----|
||---------|---------|---4-2--|------1-|
||o--------|---------|-3------|-2------|
||--2------|-0-------|--------|-2------|


  E E S S   E E S S   E E E   E S S S S
|---------|---------|-0-----|-----------|
|---0-----|-------0-|---0---|-----0-----|
|-----0---|---0-2---|-----2-|-0-2---2-0-|
|-2-----2-|-4-------|-------|-----------|
|---------|---------|-------|-----------|
|-5-------|-0-------|-5---4-|-2---------|


  E E E   E E E   E E E   E E E
|-------|-------|-------|-------|
|-------|-------|-------|-------|
|-------|---0-2-|-------|-------|
|-4-1-2-|-4-----|-1-2-4-|---1-4-|
|-------|-2-----|-3-----|-2-----|
|-1-----|-------|-------|-1-----|


  Q.     Q.     Q  +S  T T   E E E
|------|------|------------|-------|
|------|------|------------|-------|
|------|------|------------|-------|
|-2----|-2----|-2--(2)-4-2-|-1-2-4-|
|------|------|-3--(3)-----|-2-----|
|-2----|-0----|------------|-------|


  Q  E   E E E   E. S E   Q  E
|------|-------|--------|------|
|-0----|-------|--------|------|
|------|-2-0---|--------|------|
|----4-|-----4-|-2--4-2-|-1----|
|------|-------|--------|----2-|
|-1----|-2-----|-5------|-1----|


  Q  E   E E E   E E E   E E S S
|------|-------|-------|---------|
|------|-------|-------|---------|
|------|-------|-------|---------|
|------|-------|-------|---------|
|-3--2-|-0-2-0-|---0---|---------|
|------|-------|-5---5-|-4-5-4-1-|


  E E E   E E E   E E E   E E E
|-0-----|-3-----|-0-----|-2-----|
|-------|-------|-------|-------|
|-------|-------|-------|-------|
|-------|-------|-------|-------|
|-------|-------|-------|-------|
|-2-2-2-|-2-2-2-|-2-2-2-|-2-2-2-|


  E E E   E E E   E E E   E E E
|-3-----|-------|-5-----|-3-----|
|-------|-------|-------|-------|
|-------|-------|-------|-------|
|-------|-------|-0-0-0-|-------|
|-3-3-3-|-3-3-3-|-------|-3-3-3-|
|-------|-------|-------|-------|


  E E E   E E E   E E E   E E E
|-0-----|-------|-------|-2---3-|
|-------|-------|-------|-------|
|-------|-------|-------|-------|
|-------|-------|-------|-----0-|
|-0-0-0-|-0-0-0-|-0-0-0-|-2-2---|
|-------|-------|-------|-------|


  E E E   E E E   E E E   E E E
|-0-----|-------|-0-----|-------|
|-------|-0-----|-------|-0-----|
|-------|-------|-------|-------|
|-------|-------|-------|-------|
|-------|-------|-------|-------|
|-2-2-2-|-2-2-2-|-2-2-2-|-2-2-2-|


  E E E   E E E   E E E   E E E
|-------|-------|-------|-------|
|-1-----|-------|-3-----|-1-----|
|-------|-------|-------|-------|
|-------|-------|-0-0-0-|-------|
|-3-3-3-|-3-3-3-|-------|-3-3-3-|
|-------|-------|-------|-------|


  E E E   E E E   E E E   E E E
|-------|-------|-------|-------|
|-------|-------|-------|-0-----|
|-2-----|-------|-------|-----0-|
|-------|-------|-------|-------|
|-0-0-0-|-0-0-0-|-0-0-0-|-2-2---|
|-------|-------|-------|-----0-|


  Q.     Q.     Q.     Q.
|------|------|------|------|
|------|------|------|------|
|------|------|------|------|
|------|------|------|------|
|------|------|------|------|
|------|------|------|------|


  S S S S E   +Q.     S S S S E   +Q   E
|-0---0-3-0-|-(0)---|-0---0-3-0-|-(0)----|
|---4-----0-|-(0)---|---4-------|--------|
|-----------|-------|-----------|--------|
|-2---------|-------|-2---------|------0-|
|-----------|-------|-----------|--------|
|-----------|-------|-----------|--------|


  S S S S E   +E  E S S   S S Q    +E  S S S S
|-----------|-----------|--------|-------------|
|-----------|-----------|--------|-------------|
|-2-0-2-4-2-|-(2)---2-0-|-2-4----|-------------|
|-----------|-----------|-----2--|-(2)-2-0-2-4-|
|-0---------|-----2-0---|--------|-----0-------|
|-----------|-----------|--------|-------------|


  Q.     E S E.   E S E.   Q  E
|------|--------|-0------|----0-|
|------|-0------|---0----|-3----|
|-0----|---0----|-0---0--|------|
|-2----|-2---2--|--------|-2--2-|
|------|--------|--------|------|
|------|--------|--------|------|


  E E E   Q  +S  S   E E E   Q  E
|-------|----------|-0-2-3-|------|
|-0-1-0-|-4--(4)-0-|-------|-4--0-|
|-------|----------|-------|------|
|-1-----|-4--------|-1-----|------|
|-------|----------|-------|-2----|
|-------|----------|-------|------|


  E E E   E E S S   E. S E   Q  E
|-------|---------|--------|------|
|-1-0---|---------|--------|------|
|-----2-|-0-2-0---|--------|------|
|-------|-------4-|-2--4-2-|-1----|
|-0-----|-0-------|--------|-2--2-|
|-------|---------|-0------|------|


  Q  E   Q  E   Q.     E. S S S
|------|------|------|-----------||
|------|------|------|----------o||
|------|------|------|------0----||
|------|------|------|-1------4--||
|-3--2-|-0----|------|----2-----o||
|------|----5-|-4----|-1---------||

        
Comments

@Choogly (August 24, 2016 at 4:20 AM)

Awesome! Didn't even know I wanted this tab till I played it. Great job.


@thedstring (August 24, 2016 at 7:38 PM)

Awesome

but fyi your link in the tab got shortened, can't use it.

it says http://plus.ultimate-guitar.com/m/misc_soundtrack/the_binding_of_isaac_-...


@nickplayer8 (March 27, 2017 at 1:30 AM)

enjoying it its kinda hard to remember but it just requires practice