Gametabs
Home
Tabs
Random

Peloponnesus

Average rating: No ratings

Composer:

Tabber:

Style:

Instrument:

Created: June 23, 2013 at 12:00 AM

            Battle of Olympus - Peloponnesus
Composer - Kazuo Sawa
Tabber - Calebelijah


Guitar 1

E |-----10-10---|--8--------8----------|-----11-11---|--10----8--10-8-------|
B |--8----------|--------11----11-10---|--8----------|-----------------11---|
G |-------------|----------------------|-------------|----------------------|
D |-------------|----------------------|-------------|----------------------|
A |-------------|----------------------|-------------|----------------------|
E |-------------|----------------------|-------------|----------------------|


-----13-13---|--11----10-11-10-8----|--10-------8--10-11---|--10L10-10---|
--10---------|----------------------|-----10-11------------|-------------|
-------------|----------------------|----------------------|-------------|
-------------|----------------------|----------------------|-------------|
-------------|----------------------|----------------------|-------------|
-------------|----------------------|----------------------|-------------|


-----10-10---|--8--------8----------|-----11-11---|--10----8--10-8-------|
--8----------|--------11----11-10---|--8----------|-----------------11---|
-------------|----------------------|-------------|----------------------|
-------------|----------------------|-------------|----------------------|
-------------|----------------------|-------------|----------------------|
-------------|----------------------|-------------|----------------------|


-----13-13---|--11----10-11-10------|--10------------------|-------------|
--10---------|-----------------13---|-----13-11-13-11-10---|-------------|
-------------|----------------------|----------------------|--12L---12---|
-------------|----------------------|----------------------|-------------|
-------------|----------------------|----------------------|-------------|
-------------|----------------------|----------------------|-------------|


--8L----8-----8-------|--11-10-8----|--10L10------|-------------|
-----------9----------|-------------|--------11---|--8L----8----|
----------------------|-------------|-------------|-------------|
----------------------|-------------|-------------|-------------|
----------------------|-------------|-------------|-------------|
----------------------|-------------|-------------|-------------|


--8-----------8--10---|--11-10-8----|--10L10-8----|--10L---10---|
--------10-11---------|-------------|-------------|-------------|
----------------------|-------------|-------------|-------------|
----------------------|-------------|-------------|-------------|
----------------------|-------------|-------------|-------------|
----------------------|-------------|-------------|-------------|


--8L----8-----8-------|--11-10-8----|--10L10------|-------------|
-----------9----------|-------------|--------11---|--8L----8----|
----------------------|-------------|-------------|-------------|
----------------------|-------------|-------------|-------------|
----------------------|-------------|-------------|-------------|
----------------------|-------------|-------------|-------------|


--------------8--11---|--10-8-----8----------|-------------|-------------||
-----8--10-11---------|--------11----11-10---|--10-8--7----|--8L----8----||
--11------------------|----------------------|-------------|-------------||
----------------------|----------------------|-------------|-------------||
----------------------|----------------------|-------------|-------------||
----------------------|----------------------|-------------|-------------||


Guitar 2 (CAPO 3)

E |----------------------|----------------------|----------------------|
B |-----0-----0-----0----|-----0-----0-----0----|-----1--0--1-----1----|
G |--------2-----0-------|--------2-----0-------|--------------0-------|
D |--2-------------------|--2-------------------|----------------------|
A |----------------------|----------------------|--3-------------------|
E |----------------------|----------------------|----------------------|


----------------------|----------------------|----------------------|
-----1--0--1-----1----|-----3--1--3--0--3----|-----3--1--3--0--3----|
--------------0-------|----------------------|----------------------|
----------------------|--0-------------------|--0-------------------|
--3-------------------|----------------------|----------------------|
----------------------|----------------------|----------------------|


----------------------|----------------------|----------------------|
-----0-----0-----0----|-----0-----0-----0----|-----0-----0-----0----|
--------2-----0-------|--------2-----0-------|--------2-----0-------|
----------------------|----------------------|--2-------------------|
--2-------------------|--2-------------------|----------------------|
----------------------|----------------------|----------------------|


----------------------|----------------------|----------------------|
-----0-----0-----0----|-----1--0--1-----1----|-----1--0--1-----1----|
--------2-----0-------|--------------0-------|--------------0-------|
--2-------------------|----------------------|----------------------|
----------------------|--3-------------------|--3-------------------|
----------------------|----------------------|----------------------|


----------------------|----------------------|----------------------|
-----3--1--3--0--3----|-----3--1--3--0--3----|-----0-----0-----0----|
----------------------|----------------------|--------2-----0-------|
--0-------------------|--0-------------------|----------------------|
----------------------|----------------------|--2-------------------|
----------------------|----------------------|----------------------|


----------------------|----------------------|----------------------|
-----0-----0-----0----|-----1-----1-----1----|-----1-----1-----1----|
--------2-----0-------|--------2-----2-------|--------2-----2-------|
--2-------------------|--3-------------------|--3-------------------|
----------------------|----------------------|----------------------|
----------------------|----------------------|----------------------|


----------------------|----------------------|----------------------|
--------------0--1----|--0-------------------|-----1-----1-----1----|
--------0--2----------|-----2--0--2--0-------|--------2-----2-------|
--2--4----------------|-----------------4----|--4-------------------|
----------------------|----------------------|----------------------|
----------------------|----------------------|----------------------|


----------------------|----------------------|----------------------|
-----1-----1-----1----|-----------------0----|----------------------|
--------2-----2-------|-----------0--2-------|--2--0-----0----------|
--4-------------------|--1--2--4-------------|--------4-----4--2----|
----------------------|----------------------|----------------------|
----------------------|----------------------|----------------------|


----------------------|----------------------|----------------------|
-----1-----1-----1----|-----1-----1-----1----|--------------0--1----|
--------2-----2-------|--------2-----2-------|--------0--2----------|
--3-------------------|--3-------------------|--2--4----------------|
----------------------|----------------------|----------------------|
----------------------|----------------------|----------------------|


----------------------|----------------------|----------------------|
--0-------------------|-----0-----0-----0----|-----0-----0-----0----|
-----2--0--2--0-------|--------2-------------|--------2-------------|
-----------------4----|--------------4-------|--1-----------4-------|
----------------------|--2-------------------|----------------------|
----------------------|----------------------|----------------------|


----------------------|----------------------||
-----0-----0-----0----|-----0-----0-----0----||
----------------------|--------2-----0-------||
--4-----2-----1-------|--2-------------------||
----------------------|----------------------||
----------------------|----------------------||






        
Comments

No comments yet