Gametabs
Home
Tabs
Random

Laconia

Average rating: No ratings

Composer:

Tabber:

Style:

Instrument:

Created: March 06, 2009 at 12:00 AM

                                               Laconia                                      


Bass
     Q.     Q.     Q       E  Q.     Q.     E     Q    Q.     Q.      
G||---------2-----------|----------------------|-------3------2------|
D||--0-------------0----|--L--3------2---------|---------------------|
A||---------------------|-------------------4--|--L------------------|
E||---------------------|----------------------|---------------------|
 
 
  Q.     Q.     Q       E  Q.     Q.     E     Q    Q.     Q.      
---------------------|-------------------0--|--L------------------|
--3------2------0----|--L--3------2---------|--------------2------|
---------------------|----------------------|-------4-------------|
---------------------|----------------------|---------------------|
 
 
  Q.     Q.     Q       E  Q.     Q.     E     Q    Q.     Q.      
---------2-----------|----------------------|-------3------2------|
--0-------------0----|--L--3------2---------|---------------------|
---------------------|-------------------4--|--L------------------|
---------------------|----------------------|---------------------|
 
 
  Q.     Q.     Q       E  Q.     Q.     E     Q    Q.     Q.      
---------------------|-------------------0--|--L------------------|
--3------2------0----|--L--3------2---------|--------------2------|
---------------------|----------------------|-------4-------------|
---------------------|----------------------|---------------------|
 
 
  E  E  E  E  E  E  E  E     E  E  E  E  E  E  E  E   
--------------------------|--------------------------|
--3--3--3--2--2--2--0--0--|--0-----------2--2--2--0--|
--------------------------|-----4--4--4--------------|
--------------------------|--------------------------|
 
 
  E  E  E  E  E  E  E  E     E  E  E  E  E  E  E  E   
--------------------------|--------------------------|
--0--0-----------0--0--0--|--3--3--3--2--2--2--0--0--|
--------4--4--4-----------|--------------------------|
--------------------------|--------------------------|
 
 
  E  E  E  E  E  E  E  E     E  E  E  E  E  Q.      3x 
--------------------------|--------------------------||
--0-----------2--2--2--0--|--0--0-----------0------*-||
-----4--4--4--------------|--------4--4--4---------*-||
--------------------------|--------------------------||
 
 
 
 
Duration Legend
---------------
W - whole
H - half
Q - quarter
E - 8th
S - 16th
T - 32nd
X - 64th
. - note dotted
|-n-|  - n-tuplets
 
 
Tablature Legend
----------------
L - tied note


        
Comments

No comments yet